Weezer - Another Day Chords & Tabs

 

Another Day Chords & Tabs

Weezer Chords & Tabs

Version: 1 Type: Tab 0 ratings
1 star 2 stars 3 stars 4 stars 5 stars
comments

Another Day Tab

A Mad Song I Would Rate It 69/100
[ Tab from: http://www.guitartabs.cc/tabs/w/weezer/another_day_tab.html ]
Intro/Main Riff
e--------------------------------------------------------------------------
B-8-8-x-10---6-6-x-x-8-8---------------------------------------------------
G-9-9-x-9----7-7-x-x-7-7---------------------------------------------------
D--------------------------------------------------------------------------
A--------------------------------------------------------------------------
E--------------------------------------------------------------------------
Verse 2
e--------------------------------------------------------------------------
B--8-8-8-8----8--8--8--8---------------------------------------------------
G-9-9-9-9---10-10-10-10----------------------------------------------------
D--------------------------------------------------------------------------
A--------------------------------------------------------------------------
E--------------------------------------------------------------------------

Clean Guitar no distortion!!!
Comments