Weezer - Across The Sea Chords & Tabs

 

Across The Sea Chords & Tabs

Weezer Chords & Tabs

Version: 2 Type: Tab 0 ratings
1 star 2 stars 3 stars 4 stars 5 stars
comments

Across The Sea Tab

   
-----------------------------------------------------------------------
Across the Sea - Weezer
-----------------------------------------------------------------------

Tabbed by: cjpm105

Tuning: Guitar 1 - Standard, half step down.
        Guitar 2 - Standard, half step down.

Key
v = vibrato
b = bend
r = release
t = tremolo pick
~ = sustain

Guitar 2 doubles Guitar 1 and they play the same thing during the verses and first and 
parts of the choruses. They play separate parts towards the middle of the choruses and 
the solo.

Intro/ Verse
eb|--2~--------------------------------------------------------|
Bb|--3~--------------------------------------------------------|
Gb|--0~--------------------------------------------------------|
Db|--0~-----5--5--9--9--9--9--7--7--5--5--9--9--10-10--12--12--|
Ab|--2~-----5--5--9--9--7--7--5--5--5--5--9--9--10-10--12--12--|
Eb|--3~-----3--3--7--7--7--7--5--5--3--3--7--7---8--8--10--10--|

eb|-----------------------------------------------------|
Bb|-----------------------------------------------------|
Gb|-----------------------------------------------------|
Db|--5--5--9--9--9--9--7--7--5--5--9--9--10-10--12--12--|
Ab|--5--5--9--9--7--7--5--5--5--5--9--9--10-10--12--12--|
Eb|--3--3--7--7--7--7--5--5--3--3--7--7---8--8--10--10--|

eb|--------------------------------------------------|
Bb|--------------------------------------------------|
Gb|--------------------------------------------------|
Db|--5--5--9--9--9--9--7--7--5--5--9--9--9--9--7--7--|
Ab|--5--5--9--9--7--7--5--5--5--5--9--9--7--7--5--5--|
Eb|--3--3--7--7--7--7--5--5--3--3--7--7--7--7--5--5--|

Chorus
eb|--------------------------------------------------------|
Bb|--------------------------------------------------------|
Gb|--------------------------------------------------------|
Db|--2-2-2-5--5--5-5--9-9-9-9--9-9-9-9--9--9-9--7-7-7-7-7--|
Ab|--2-2-2-5--5--5-5--9-9-9-9--9-9-9-7--7--7-7--5-5-5-5-5--|
Eb|--0-0-0-3--3--3-3--7-7-7-7--7-7-7-7--7--7-7--5-5-5-5-5--|

eb|----------------------------------------------------------|
Bb|----------------------------------------------------------|
Gb|----------------------------------------------------------|
Db|--2-2-2-5--5--5-5--9-9-9-9--9-9-9-9--9--9-9--7-7-7-7-7-7--|
Ab|--2-2-2-5--5--5-5--9-9-9-9--9-9-9-7--7--7-7--5-5-5-5-5-5--|
Eb|--0-0-0-3--3--3-3--7-7-7-7--7-7-7-7--7--7-7--5-5-5-5-5-5--|

eb|--12-12-12-12-12--12-12-12-12--10-10-10-10-10--10-10-10-10--|
Bb|--13-13-13-13-13--13-13-13-13--12-12-12-12-12--12-12-12-12--|
Gb|------------------------------------------------------------|
Db|------------------------------------------------------------|
Ab|------------------------------------------------------------|
Eb|------------------------------------------------------------|
****************************************************************
eb|-------------------------------------------------------------|
Bb|-------------------------------------------------------------|
Gb|-------------------------------------------------------------|
Db|--10~--------------------------9~----------------------------|
Ab|--10~--------------------------9~----------------------------|
Eb|---8~--------------------------7~----------------------------|

eb|--15-15-15-15-15-15-15-15-15-15-15-15-15-15-15-15--|
Bb|--15-15-15-15-15-15-15-15-15-15-15-15-15-15-15-15--|
Gb|---------------------------------------------------|
Db|---------------------------------------------------|
Ab|---------------------------------------------------|
Eb|---------------------------------------------------|
*******************************************************
eb|---------------------------------------------------|
Bb|---------------------------------------------------|
Gb|---------------------------------------------------|
Db|--7~-----------------------------------------------|
Ab|--5~-----------------------------------------------|
Eb|--5~-----------------------------------------------|

eb|--------------------------------------------------|
Bb|--------------------------------------------------|
Gb|--------------------------------------------------|
Db|--5--5--5--5--2--2--7--5--5--5--7--7--5--5--5--5--|
Ab|--5--5--5--5--2--2--5--5--3--3--5--5--5--5--5--5--|
Eb|--3--3--2--2--0--0--5--5--3--3--5--5--3--3--3--3--|

eb|----0---0---0---0---0---0---0---0----15----15----15----15--|
Bb|--0---0---0---0---0---0---0---0---15----15----15----15-----|
Gb|-----------------------------------------------------------|
Db|-----------------------------------------------------------|
Ab|-----------------------------------------------------------|
Eb|-----------------------------------------------------------|

eb|-----15----15----14----14--|
Bb|--15----15----15----15-----|
Gb|---------------------------|
Db|---------------------------|
Ab|---------------------------|
Eb|---------------------------|

Verse
eb|-----------------------------------------------------|
Bb|-----------------------------------------------------|
Gb|-----------------------------------------------------|
Db|--5--5--9--9--9--9--7--7--5--5--9--9--10-10--12--12--|
Ab|--5--5--9--9--7--7--5--5--5--5--9--9--10-10--12--12--|
Eb|--3--3--7--7--7--7--5--5--3--3--7--7---8--8--10--10--|

eb|-----------------------------------------------------|
Bb|-----------------------------------------------------|
Gb|-----------------------------------------------------|
Db|--5--5--9--9--9--9--7--7--5--5--9--9--10-10--12--12--|
Ab|--5--5--9--9--7--7--5--5--5--5--9--9--10-10--12--12--|
Eb|--3--3--7--7--7--7--5--5--3--3--7--7---8--8--10--10--|

eb|---------------------------------------------------------|
Bb|---------------------------------------------------------|
Gb|---------------------------------------------------------|
Db|--5--5--9--9--10-10--12--12---5--5--9--9--10-10--12--12--|
Ab|--5--5--9--9--10-10--12--12---5--5--9--9--10-10--12--12--|
Eb|--3--3--7--7---8--8--10--10---3--3--7--7---8--8--10--10--|

eb|---------------------------------------------------------|
Bb|---------------------------------------------------------|
Gb|---------------------------------------------------------|
Db|--5--5--9--9--10-10--12--12---5--5--9--9--10-10--12--12--|
Ab|--5--5--9--9--10-10--12--12---5--5--9--9--10-10--12--12--|
Eb|--3--3--7--7---8--8--10--10---3--3--7--7---8--8--10--10--|

Second Chorus
eb|--------------------------------------------------------|
Bb|--------------------------------------------------------|
Gb|--------------------------------------------------------|
Db|--2-2-2-5--5--5-5--9-9-9-9--9-9-9-9--9--9-9--7-7-7-7-7--|
Ab|--2-2-2-5--5--5-5--9-9-9-9--9-9-9-7--7--7-7--5-5-5-5-5--|
Eb|--0-0-0-3--3--3-3--7-7-7-7--7-7-7-7--7--7-7--5-5-5-5-5--|

eb|----------------------------------------------------------|
Bb|----------------------------------------------------------|
Gb|----------------------------------------------------------|
Db|--2-2-2-5--5--5-5--9-9-9-9--9-9-9-9--9--9-9--7-7-7-7-7-7--|
Ab|--2-2-2-5--5--5-5--9-9-9-9--9-9-9-7--7--7-7--5-5-5-5-5-5--|
Eb|--0-0-0-3--3--3-3--7-7-7-7--7-7-7-7--7--7-7--5-5-5-5-5-5--|

eb|--12-12-12-12-12--12-12-12-12--10-10-10-10-10--10-10-10-10--|
Bb|--13-13-13-13-13--13-13-13-13--12-12-12-12-12--12-12-12-12--|
Gb|------------------------------------------------------------|
Db|------------------------------------------------------------|
Ab|------------------------------------------------------------|
Eb|------------------------------------------------------------|
****************************************************************
eb|-------------------------------------------------------------|
Bb|-------------------------------------------------------------|
Gb|-------------------------------------------------------------|
Db|--10~--------------------------9~----------------------------|
Ab|--10~--------------------------9~----------------------------|
Eb|---8~--------------------------7~----------------------------|

eb|--15-15-15-15-15-15-15-15-15-15-15-15-15-15-15-15--|
Bb|--15-15-15-15-15-15-15-15-15-15-15-15-15-15-15-15--|
Gb|---------------------------------------------------|
Db|---------------------------------------------------|
Ab|---------------------------------------------------|
Eb|---------------------------------------------------|
*******************************************************
eb|---------------------------------------------------|
Bb|---------------------------------------------------|
Gb|---------------------------------------------------|
Db|--7~-----------------------------------------------|
Ab|--5~-----------------------------------------------|
Eb|--5~-----------------------------------------------|

eb|--------------------------------------------------|
Bb|--------------------------------------------------|
Gb|--------------------------------------------------|
Db|--5--5--5--5--2--2--7--5--5--5--7--7--5--5--5--5--|
Ab|--5--5--5--5--2--2--5--5--3--3--5--5--5--5--5--5--|
Eb|--3--3--2--2--0--0--5--5--3--3--5--5--3--3--3--3--|
[ Tab from: http://www.guitartabs.cc/tabs/w/weezer/across_the_sea_tab_ver_2.html ]
Solo
eb|--6-6-6-8-8-8-10-10--15-15-15-13-13-13-10-10-10-10-10-10-8-8-6-6--|
Bb|--x-x-x-x-x-x--x--x---x--x--x--x--x--x--x--x--x--x--x--x-x-x-x-x--|
Gb|--3-3-3-5-5-5--7--7--12-12-12-10-10-10--7--7--7--7--7--7-5-5-3-3--|
Db|------------------------------------------------------------------|
Ab|------------------------------------------------------------------|
Eb|------------------------------------------------------------------|
**********************************************************************
eb|------------------------------------------------------------------|
Bb|------------------------------------------------------------------|
Gb|------------------------------------------------------------------|
Db|--8--8--8--8--7--7--7--7--5--5--5--5--3--3--3--3--8--8--10--10----|
Ab|--8--8--8--8--7--7--7--7--5--5--5--5--3--3--3--3--6--6---8---8----|
Eb|--6--6--6--6--5--5--5--5--3--3--3--3--1--1--1--1--6--6---8---8----|

eb|--18-18-18-17-17-17-13-13-15-15-15-10-10-10-13-13--|
Bb|---x--x--x--x--x--x--x--x--x--x--x--x--x--x--x--x--|
Gb|--15-15-15-14-14-14-10-10-12-12-12--7--7--7-10-10--|
Db|---------------------------------------------------|
Ab|---------------------------------------------------|
Eb|---------------------------------------------------|
*******************************************************
eb|---------------------------------------------------|
Bb|---------------------------------------------------|
Gb|---------------------------------------------------|
Db|--5--5--5-----7--7----7--5--5--5-----7--7-----7----|
Ab|--5--5--5-----5--5----5--5--5--5-----5--5-----5----|
Eb|--3--3--3-----5--5----5--3--3--3-----5--5-----5----|

eb|-----------------------------------------|
Bb|--15-13-13-13-13----13v~-----13----15v~--|
Gb|-----------------15-------15----15-------|
Db|-----------------------------------------|
Ab|-----------------------------------------|
Eb|-----------------------------------------|
*********************************************
eb|-----------------------------------------|
Bb|-----------------------------------------|
Gb|-----------------------------------------|
Db|--5--5--5--5--5--5--5--5--5--5--5--5--5--|
Ab|--3--3--3--3--3--3--3--3--3--3--3--3--3--|
Eb|--3--3--3--3--3--3--3--3--3--3--3--3--3--|

eb|--15-15-15-14-14-14-10-10-12-12-12-14-14-14-15-15--|
Bb|---x--x--x--x--x--x--x--x--x--x--x--x--x--x--x--x--|
Gb|--12-12-12-11-11-11--7--7--9--9--9-11-11-11-12-12--|
Db|---------------------------------------------------|
Ab|---------------------------------------------------|
Eb|---------------------------------------------------|
*******************************************************
eb|---------------------------------------------------|
Bb|---------------------------------------------------|
Gb|---------------------------------------------------|
Db|--5--5--5-----7--7----7--5--5--5-----7--7-----7----|
Ab|--5--5--5-----5--5----5--5--5--5-----5--5-----5----|
Eb|--3--3--3-----5--5----5--3--3--3-----5--5-----5----|

eb|----------------------------------------------------------|
Bb|--12-10-10-10-10----10v~--15t15t15t15t15t15t15t15t-13-12--|
Gb|-----------------12---------------------------------------|
Db|----------------------------------------------------------|
Ab|----------------------------------------------------------|
Eb|----------------------------------------------------------|
**************************************************************
eb|-----------------------------------------------------------|
Bb|-----------------------------------------------------------|
Gb|-----------------------------------------------------------|
Db|--7--7--7--7--7--7--7--7--7--7--7--7--7--7--7--7--7--7--7--|
Ab|--5--5--5--5--5--5--5--5--5--5--5--5--5--5--5--5--5--5--5--|
Eb|--5--5--5--5--5--5--5--5--5--5--5--5--5--5--5--5--5--5--5--|


eb|-----------------------------------------|
Bb|-----------12-12-12-14-14--14b--14r------|
Gb|--13-13-13--------------------------13~--|
Db|-----------------------------------------|
Ab|-----------------------------------------|
Eb|-----------------------------------------|
*********************************************
eb|-----------------------------------------|
Bb|-----------------------------------------|
Gb|-----------------------------------------|
Db|--11-11-11---13-13---13-11-11-11---13-13-|
Ab|--11-11-11---11-11---11-11-11-11---11-11-|
Eb|---9--9--9---11-11---11--9--9--9---11-11-|


eb|--16-16-16-14-14-14-14-14-14-14-14-14-16-16------|
Bb|---x--x--x--x--x--x--x--x--x--x--x--x--x--x-(0)--|
Gb|--13-13-13-11-11-11-11-11-11-11-11-11-13-13------|
Db|-------------------------------------------------|
Ab|-------------------------------------------------|
Eb|-------------------------------------------------|
*****************************************************
eb|-------------------------------------------------|
Bb|-------------------------------------------------|
Gb|-------------------------------------------------|
Db|----13-----11~------------------------13----9~---|
Ab|----11------9~------------------------11----9~---|
Eb|----11------9~------------------------11----7~---|


Breakdown (Palm-muted)
(3:10)
eb|-----------------------------------------------------------|
Bb|-----------------------------------------------------------|
Gb|-----------------------------------------------------------|
Db|--9-9-9-9-9-9-9-9-6-6-6-6-4-4-4-4--------------------------|
Ab|--7-7-7-7-6-6-6-6-4-4-4-4-2-2-2-2-7-7-7-7-7-7-7-7-9-9-9-9--|
Eb|----------------------------------5-5-5-5-4-4-4-4-7-7-7-7--|

eb|-----------------------------------------------------------|
Bb|-----------------------------------------------------------|
Gb|-----------------------------------------------------------|
Db|--9-9-9-9-9-9-9-9-6-6-6-6-4-4-4-4--------------------------|
Ab|--7-7-7-7-6-6-6-6-4-4-4-4-2-2-2-2-7-7-7-7-7-7-7-7-9-9-9-9--|
Eb|----------------------------------5-5-5-5-4-4-4-4-7-7-7-7--|

Verse
eb|---------------------------------------------------------|
Bb|---------------------------------------------------------|
Gb|---------------------------------------------------------|
Db|--5--5--9--9--10-10--12--12---5--5--9--9--10-10--12--12--|
Ab|--5--5--9--9--10-10--12--12---5--5--9--9--10-10--12--12--|
Eb|--3--3--7--7---8--8--10--10---3--3--7--7---8--8--10--10--|

eb|-----------------------------------------------------|
Bb|-----------------------------------------------------|
Gb|-----------------------------------------------------|
Db|--5--5--9--9--9--9--7--7--5--5--9--9--10-10--12--12--|
Ab|--5--5--9--9--7--7--5--5--5--5--9--9--10-10--12--12--|
Eb|--3--3--7--7--7--7--5--5--3--3--7--7---8--8--10--10--|

eb|--------------------------------------------------------|
Bb|--------------------------------------------------------|
Gb|--------------------------------------------------------|
Db|--5--5--9--9--10--10--12--12--14--14--9--9--10--10--12--|
Ab|--5--5--9--9--10--10--12--12--14--14--9--9--10--10--12--|
Eb|--3--3--7--7---8---8--10--10--12--12--7--7---8---8--10--|

Final Chorus
eb|-------------------------------------------------------------|
Bb|-------------------------------------------------------------|
Gb|--------------------------------------------9--9--9-9-7-7-7--|
Db|--5--5--5-5-5--9-9-9-9--9-9-9--7--7--7-7-7--9--9--9-9-7-7-7--|
Ab|--5--5--5-5-5--9-9-9-9--9-9-9--7--7--7-7-7--7--7--7-7-5-5-5--|
Eb|--3--3--3-3-3--7-7-7-7--7-7-7--5--5--5-5-5--7--7--7-7-5-5-5--|

eb|-----------------------------------------------------------|
Bb|-----------------------------------------------------------|
Gb|--------------------------------------------9-9-9-9-9-9-9--|
Db|--5--5--5-5-5--9-9-9-9--9-9-9--7--7--7-7-7--9-9-9-9-9-9-9--|
Ab|--5--5--5-5-5--9-9-9-9--9-9-9--7--7--7-7-7--7-7-7-7-7-7-7--|
Eb|--3--3--3-3-3--7-7-7-7--7-7-7--5--5--5-5-5--7-7-7-7-7-7-7--|

eb|--12-12-12-12-12--12-12-12-12--10-10-10-10-10--10-10-10-10--|
Bb|--13-13-13-13-13--13-13-13-13--12-12-12-12-12--12-12-12-12--|
Gb|------------------------------------------------------------|
Db|------------------------------------------------------------|
Ab|------------------------------------------------------------|
Eb|------------------------------------------------------------|
****************************************************************
eb|-------------------------------------------------------------|
Bb|-------------------------------------------------------------|
Gb|-------------------------------------------------------------|
Db|--10~--------------------------9~----------------------------|
Ab|--10~--------------------------9~----------------------------|
Eb|---8~--------------------------7~----------------------------|

eb|--15-15-15-15-15-15-15-15-15-15-15-15-15-15-15-15--|
Bb|--15-15-15-15-15-15-15-15-15-15-15-15-15-15-15-15--|
Gb|---------------------------------------------------|
Db|---------------------------------------------------|
Ab|---------------------------------------------------|
Eb|---------------------------------------------------|
*******************************************************
eb|---------------------------------------------------|
Bb|---------------------------------------------------|
Gb|---------------------------------------------------|
Db|--7~-----------------------------------------------|
Ab|--5~-----------------------------------------------|
Eb|--5~-----------------------------------------------|

eb|--------------------------------------------------|
Bb|--------------------------------------------------|
Gb|--------------------------------------------------|
Db|--5--5--5--5--2--2--7--5--5--5--7--7--5--5--5--5--|
Ab|--5--5--5--5--2--2--5--5--3--3--5--5--5--5--5--5--|
Eb|--3--3--2--2--0--0--5--5--3--3--5--5--3--3--3--3--|

eb|----------------------------------------|
Bb|----------------------------------------|
Gb|----------------------------------------|
Db|--5--5--5--5--2--2--7--5--5~---7~---5~--|
Ab|--5--5--5--5--2--2--5--5--3~---5~---5~--|
Eb|--3--3--2--2--0--0--5--5--3~---5~---3~--|
Comments