Weezer - Across The Sea Chords & Tabs

 

Across The Sea Chords & Tabs

Weezer Chords & Tabs

Version: 1 Type: Bass Tab 0 ratings
1 star 2 stars 3 stars 4 stars 5 stars
comments

Across The Sea Bass Tab

   
Weezer - Across The Sea
Submitted By: Jason Lee
EMail: loser_guitarist@hotmail.com
album: Pinkerton (1996)

tuned 1/2 step down (Eb Ab Db Gb)

Verse
Gb:----------------------------------|
Db:----------------------------------|
Ab:-----2-2-/7-7-5-5-----2-2-3-3-5-5-|
Eb:--3-3--------------3-3------------|

Chorus
Gb:--------------------------------------------------------------------|
Db:--------------------------------------------------------------------|
Ab:---------2-2-2-2-/7-7-7-7-5-5-5-5---------2-2-2-2-/7-7-7-7-7-10-9-7-|
Eb:-3-3-3-3--------------------------3-3-3-3---------------------------|

Gb:-----------------------------------------------------------------|
Db:-----------------------------------------------------------------|
Ab:---7-5-----5-3-2---2-3-5-----4---------------------------5-5-5-5-|
Eb:-7-----7-5-------3-------5-7---7-3-3-3-3-2-2-2-2-0-0-0-0---------|

Gb:-----------------------------------------|
Db:-----------------------------------------|
Ab:-3-3-3-3-5-5-5-5/10-10-10-10-10-10-10-10-|
Eb:-----------------------------------------|

After 1st Chorus
Gb:-----------------------------------------------------------------|
Db:-----------------------------------------------------------------|
Ab:-7-7-7-7-5-5-5-5-3-3-3-3-2-2-2-2-----------------5-5-5-5-5-5-5-5-|
Eb:---------------------------------5-5-5-5-5-5-5-5-----------------|

Solo
Gb:----------------------------------------------------------------------------------|
Db:----------------------------------------------------------------------------------|
Ab:---------------------------------4-4-4-4-6-6-6-6--------5-5-5-/10-10-10-----------|
Eb:-6-6-6-6-5-5-5-5-3-3-3-3-3-3-3-3-----------------3-3-3-------------------10-10-10-|
[ Tab from: http://www.guitartabs.cc/tabs/w/weezer/across_the_sea_btab.html ]
Gb:----------------------------------------------------------------------------------|
Db:----------------------------------------------------------------------------------|
Ab:-----8h10---8-10---10-8-8------------------5-5-5--/10-10-10-------------------7---|
Eb:-10-----------------------10-10-8-8-3-3-3--------------------10-10-10--7-9-10---7-|

Gb:------------------------------------------------------------|
Db:------------------------------------------------------------|
Ab:---------------------7-7-7----------------------------------|
Eb:-5-4-2-5-5-5--7-7-7---------7-7-7-3-3-3-3-3-3-3-3-7---------|

Bridge
Gb:------------------------------|---------------------------|
Db:.----------------------------.|.--------------------------|
Ab:.-/7---6---4-----------------.|.-/7-7-7-7-6-6-6-6-4-4-4-4-|
Eb:--------------7---5---3---/7--|---------------------------|

Gb:-------------------------------------------|
Db:------------------------------------------.|
Ab:------------------------------------------.|
Eb:-7-7-7-7-5-5-5-5-3-3-3-3-/7-7-7-7-7-7-7-7--|

Last Verse
Gb:------------------------------------|-----------------/9-9-----------------|
Db:.----------------------------------.|----------------------9-9-10-10-12-12-|
Ab:.-----2-2-/7-7-5-5-----2-2-3-3-5-5-.|-----2-2-3-3-5-5----------------------|
Eb:--3-3--------------3-3--------------|-3-3----------------------------------|

Last Chorus
Gb:-------------------------------------------------------------------|
Db:.-----------------------------------------------------------------.|
Ab:.-----------------2-2-2-2-2-2-2-2---------------------------------.|
Eb:--3-3-3-3-3-3-3-3-----------------5-5-5-5-5-5-5-5-0-0-0-0-0-0-0-0--|

Gb:----------------------------------|---------------------------------|
Db:.--------------------------------.|---------------------------------|
Ab:.-3-3-3-3------------------------.|-------------------------5-5-5-5-|
Eb:---------5-5-5-5-3-3-3-3-3-3-3-3--|-3-3-3-3-2-2-2-2-0-0-0-0---------|

Gb:---------------------------------|
Db:---------------------------------|
Ab:-3-3-3-3-5-5-5-5-----------------|
Eb:-----------------3-3-3-3-3-3-3-3-|

tabbed out 10/29/02 by =bert=
Comments