Ween - Voodoo Lady Chords & Tabs

 

Voodoo Lady Chords & Tabs

Ween Chords & Tabs

Version: 2 Type: Bass Tab 0 ratings
1 star 2 stars 3 stars 4 stars 5 stars
comments

Voodoo Lady Bass Tab

Ween - Voodoo Lady
Bass Tablature

I think this is a good interpretation of the song.  I play it out live like this and it 
to work.  There are a couple of hammer-on/pull-offs I add just for a little variety in 
 It's hard to find any Ween bass tabs on the NET!!!  Hope this helps somebody.

Comments welcome - this is my first tab! (from memory, as much as I hate when people say and do that)

Tabbed by Jon Costello - quibbs0@hotmail.com

	Intro(repeat until first verse)
G------------------------|
D------------------------|
A------------------------|
E----5----5----5---0-3---|

Verse	(Repeat x4)
G------------------------------------|
D-------------------------------3----|
A---------33--------------3---5------|
E---55-----------55---------5--------|


Chorus
G------------------------------------------|
D------------------------------------------|
A-----5-5-5-5-8-8-8-8h10p8---5-5-5-5-77-77-|
E------------------------------------------|

[ Tab from: http://www.guitartabs.cc/tabs/w/ween/voodoo_lady_btab_ver_2.html ]
First Guitar Solo (Repeat x2)
G----------------------------------------|
D-----------33--77-----------------------|
A----3355-------------33337775-3-----|
E------------------------------------5---|


Pre-Jam (slow part, whole notes I think)
G----------------------------------------------|
D----------------------------------------------|
A------------3---------------3---------------3-|
E----5---------------5---------------5---------|


Chromatic Build into jam
G--------------------------------------------------|
D---------------------------------3333444455556666-|
A-------------33334444555566667777-----------------|
E555566667777-------------------------------------|


	Guitar Solo/Jam (repeat indefinitely)
G-------------------------------|
D-------------------------------|
A-----7---5---------------------|
E5-----------8---5---0---3-4---|


Back to the Verse again	(Repeat x4)
G------------------------------------|
D-------------------------------3----|
A---------33--------------3---5------|
E---55-----------55---------5--------|


Finish with Chorus
G------------------------------------------|
D------------------------------------------|
A-----5-5-5-5-8-8-8-8h10p8---5-5-5-5-77-77-|
E------------------------------------------|
Comments