Ween - Stallion Pt Chords & Tabs

 

Stallion Pt Chords & Tabs

Ween Chords & Tabs

Version: 1 Type: Tab 0 ratings
1 star 2 stars 3 stars 4 stars 5 stars
comments

Stallion Pt Tab

   
The Stallion Pt. 2
From "Pure Guava"
By Ween
Transcribed by Tom Bratten



I actually figured this out from a recording 
of Ween playing live in Morrisville back in '94,
so it might be a little bit different than the 
studio version.  It's pretty simple.

Verse

D        Fmin(?)  C

---2---------0----0-------------------
-----3---------1--1-------------------
-----------2------0-------------------
-0-----0-3--------2-------------------
------------------3-------------------
-------------------------------------- 

. . .Over and over, with slight picking variations

[ Tab from: http://www.guitartabs.cc/tabs/w/ween/stallion_pt_tab.html ]
Chorus 
(strum this; don't just hit the
chords once.  Duh.)
     
             I am the one who controls . . 
-3-------------------------------------
-3--------------------5----------------
-4--------------------5----------------
-5--------------------5----------------
-5--------------------3----------------
-3-------------------------------------

That's all there is to the song.

The solo is variations of these two riffs:

Riff 1
------------------10-------------------
-13-13p10--13-13------10---------------
---------------------------------------
---------------------------------------
---------------------------------------
---------------------------------------

Riff 2
---------------------------------------
-----------13-13--15-------------------
-12--12/14-----------------------------
---------------------------------------
---------------------------------------
---------------------------------------


Just take those two licks and build your own
solo out of them.  It's more fun that way.
Comments