Ween - Roses Are Free Chords & Tabs

 

Roses Are Free Chords & Tabs

Ween Chords & Tabs

Version: 1 Type: Bass Tab 0 ratings
1 star 2 stars 3 stars 4 stars 5 stars
comments

Roses Are Free Bass Tab

Tabbed by: Jon Costello (quibbs0@hotmail.com)

This song is very open to interpretation.
It's Ween's song but Phish plays it too and I'm basing
it off stuff I have heard live and how I play it
with my band.  I think it's actually played one step up
so add one to all the numbers if you want.

Intro/Verse 
(Repeat as needed, should be 4 times with vocals I think)
[ Tab from: http://www.guitartabs.cc/tabs/w/ween/roses_are_free_btab.html ]
G|-------------------------------8---------8--------------------|
D|----------6------------------8---------8-----6---6---6---6----|
A|--------6----------5-6--8--8-----8--8-------6-6-6-6-6-6-6-6---|
E|---6--6-------6--6-------------------------6---6---6---6---6--|

Chorus

E|-1---1---3---3---4---4---5---5---6-6-6-6-6-6-6-

Note for chorus:
I like to use a few variations on the Bb so it's not so static 
(or the 6 for those of you who don't know what a Bb is)
One way is to slide up an octave and back down. 
Other way is to sort of 6---8---6---8---6---8---
Hammer ons, pulls off, etc...use your imagination

Bridge (circus sounding part)

G|---------------------------|
D|---------------------------|
A|------8-----8-----8-----8--|
E|---6-----6-----6-----6-----|
Comments