Ween - Push The Little Daisies Chords & Tabs

 

Push The Little Daisies Chords & Tabs

Ween Chords & Tabs

Version: 2 Type: Bass Tab 0 ratings
1 star 2 stars 3 stars 4 stars 5 stars
comments

Push The Little Daisies Bass Tab

Ween - Push The Little Daisies

  intro/verse (variations of this are mostly just extra strumming of these given notes)
G|-------------------------------------------------------------|
D|----------------3-3--3-33---3-1-1-11-111-111-1/4-4-4-444-6-4-|
A|1-1----1---1--1----------------------------------------------|
E|-----3---3---1-----------------------------------------------|
[ Tab from: http://www.guitartabs.cc/tabs/w/ween/push_the_little_daisies_btab_ver_2.html ]
  1st chorus (x2)
G|--------------------------------|
D|------/3-3-333-3------/3-3-h5-3-|
A|1111-1----------1111-1----------|
E|--------------------------------|

2nd CHORUS/OUTRO
play the verse measure once, then:
   (x4)
G|---------------|
D|---------------|
A|1-1-111--------|
E|-------2--222-2|

then play the 1st chorus measure twice and then:

G|----------------<15>--15-15-15----------|
D|------/5-3-5-57------------------531----|
A|1-1-1-------------------------------1---|
E|----------------------------------------|

what a funny song!
tabbed by Achilles (blue_sincere@hotmail.com)
Comments