Ween - Mutilated Lips Chords & Tabs

 

Mutilated Lips Chords & Tabs

Ween Chords & Tabs

Version: 1 Type: Tab 0 ratings
1 star 2 stars 3 stars 4 stars 5 stars
comments

Mutilated Lips Tab

Mutilated Lips
By Ween
From the Album "The Mollusk"
Transcribed by Tom Bratten

Obviously you want to strum these chords instead of just hitting 
them once, but I didn't feel like tabbing out the rhythm.  
Just listen to the record.  Oh, and I play all the notes on the
low E with my thumb; easier for me, maybe not for you though.  

      I lick my brain in silence. . .                                
------0-----------------------5------------------                
------4-----------------------3------------------                 
------4-----------------------4------------------    etc.     
------2-----------------------5------------------                
------2------------------------------------------               
-0------------------------3----------------------                 

           I said please calm it down. . .
-----------5----------------------------0------------0----------
-----------3---------------------------4---4-4-----4----4-------
-----------4--------------------------4-----4-----4------4------
-----------5-------------------------2-----------2---------2----  etc.
----------------------------------------------------------------
-3--------------------------------------------------------------

 Mutilated lips give a kiss on the wrist of the 
-----------10---------5------------------------
-----------8----------3------------------------
-----------9----------4------------------------
-----------10---------5------------------------
-----------------------------------------------
-10--------------------------------------------

 worm-like tips of tentacles expanding in my mind. . .
-3-----------------0---------------------------------
-1-----------------4---------------------------------
-2-----------------4---------------------------------
-3-----------------2---------------------------------
-------------------2---------------------------------
--------------------------------------------10-------

Solo

--12---14---12---------12----14----14b15b14-----------
---x--------------------------------------------------
---x--------------------------------------------------
---x--------------------------------------------------
------------------------------------------------------
------------------------------------------------------
[ Tab from: http://www.guitartabs.cc/tabs/w/ween/mutilated_lips_tab.html ]
-12---14----12--------12----14----14b15b14------------
----------------------x-------------------------15----
----------------------x-------------------------------
----------------------x-------------------------------
------------------------------------------------------
------------------------------------------------------

--12---14---12--------12----14---14b15b14----------------
---x--------------------------------------15--15-15h17---
---x--------------------------------------------------16-
---------------------------------------------------------
---------------------------------------------------------
---------------------------------------------------------

-12---14----12--------12---14--14b15b14-------------------
----------------------x-----------------------------------
----------------------x-----------------------------------
----------------------x-----------------------------------
----------------------------------------------------------
----------------------------------------------------------

----------------------------------------------------------
--15--15---15-15--15h17-----------------------------------
-----------------------16---------------------------------
----------------------------------------------------------
----------------------------------------------------------
----------------------------------------------------------

----------------------------------------------------------
-14--14h15---15----15-15h17-------------------------------
----------------------------16-----------14p13---13h14-13-
----------------------------------------------14----------
----------------------------------------------------------
----------------------------------------------------------

----------------------------------------------------------
--15--15----15-15--15h17----------------------------------
------------------------16---------------14p13--13h14-13--
----------------------------------------------14----------
----------------------------------------------------------

-----------------------------------------/19--------------
-14--14h15---15----15-15h17-------------------------------
----------------------------16----------------------------
----------------------------------------------------------
----------------------------------------------------------
----------------------------------------------------------

That's kind of my own rendition of the solo.  If you wanted to
play it note-for-note, just listen to the damn record, it's 
pretty easy.  The whole song, actually, is pretty easy, 
it's just a matter of getting used to some of the weird chords.
Comments