Ween - Its Gonna Be A Long Night Chords & Tabs

 

Its Gonna Be A Long Night Chords & Tabs

Ween Chords & Tabs

Version: 1 Type: Bass Tab 0 ratings
1 star 2 stars 3 stars 4 stars 5 stars
comments

Its Gonna Be A Long Night Bass Tab

----------------------------------------------------------------------------
It's gonna be a long night
By Ween
From the album: Quebec
Tabbed by Master t aka Tyler
----------------------------------------------------------------------------

Note:
This song is in Eb.  Also, try playing this song slap.  It's a little harder to do, but 
adds a heavier egde to the song.

S: thumb slap
P: finger pop
p: pull off
h: hammer on

Intro:

  S S S S S S  S S S S
Gb|---------------------|
Db|---------------------|   Repeat x2
Ab|3-3-3-3-3-3\---------|
Eb|-------------5-5-5-5\|


Main Riff:
[ Tab from: http://www.guitartabs.cc/tabs/w/ween/its_gonna_be_a_long_night_btab.html ]
      P  S  PP    S SS    S S S
Gb|-------------|--------------|
Db|-2p0----0h2p0|--------------|
Ab|-------2-----|2-0-----------|
Eb|----0h3------|---3p0--0-3-5\|
   "heard that you are new in town..."
   "...we'll rack 'em up and suck 'em down"


Chorus:

    P P P P S P S  S S S S S S S  P P P P S P S  S S S S S S S
Gb|--------------|--------------|--------------|--------------|
Db|--------------|--------------|--------------|--------------|
Ab|-7-7-7-7---7--|--------------|-8-8-8-8---8--|--------------|
Eb|---------7---7|-5-5-5-5-5-5-7|---------5---5|-3-3-0-3-0-3-0|
    "don't call your mother, don't call your priest..."
    "...take off your coat - it's gonna be a long night"

Then just another intro riff and it's over
----------------------------------------------------------------------------
Comments