Ween - Hiv Song Chords & Tabs

 

Hiv Song Chords & Tabs

Ween Chords & Tabs

Version: 1 Type: Bass Tab 0 ratings
1 star 2 stars 3 stars 4 stars 5 stars
comments

Hiv Song Bass Tab

 tabbed by :ween

  main riff
[ Tab from: http://www.guitartabs.cc/tabs/w/ween/hiv_song_btab.html ]
 g|--------------------------------------------------------------------|
 d|--------------------------------------------------------------------|
 a|--2---2---2---2-2-1-0-10----9----7----------------------------------| x4
 e|----2---2---2------------10---9----7-7------------------------------|

  fast part

 g|-----------------|
 d|--3-2-0----------|
 a|2-------2--------|
 e|----------0-1-2--|

  short easy but fun and corrections or complaints about this tab email
  swampy922@hotmail.com (oh by the way this is my first tab)
Comments