Ween - Buckingham Green Chords & Tabs

 

Buckingham Green Chords & Tabs

Ween Chords & Tabs

Version: 1 Type: Tab 0 ratings
1 star 2 stars 3 stars 4 stars 5 stars
comments

Buckingham Green Tab

Buckingham green lead break

The rest of the song has been well tabbed by jeff Coleman.

This is one of my favorite solos, and I just had to learn itThis is the first tab I've 
written so the notation and use of commas is haphazard.  listen to the record.

N.B. The song on the record is about half a note lower than perfect pitch, just to make it hard to play along!!

E -----------------------------------------------------------------15-------------------------15--------------|
B---------------------------------------8---10----9~~~------15(b17)--(17b)15-13-----13--15(b17)--(17b)15--13--|
G-9-7-------------5--7--(5)---(7)--9--10--------------(9)------------------------14---------------------------|
D ----10--9--7-------------(7)--------------------------(9)---------------------------------------------------|
A ------------------------------------------------------------------------------------------------------------|
E ------------------------------------------------------------------------------------------------------------|

[ Tab from: http://www.guitartabs.cc/tabs/w/ween/buckingham_green_tab.html ]
e-----------------------------------17-15-14--------------------------------------------14-15-14---------------|
b------13-15b------13------13-15b-----------17-16-15--13-15b-po 13-15------15---------------------15-----------|
g---14---------14------14----------------------------------------------------------------------------12p11-----|
d----------------------------------------------------------------------------------------------------------12--|
a--------------------------------------------------------------------------------------------------------------|
E--------------------------------------------------------------------------------------------------------------|


E----------------------------------------------------12b1312--10--12--13--12-16---12---------------------------|
B-----------------13-h-15-13--------------12--13-15----------------------------------12----12------------------|
G---------12--14--------------14--12--14-------------------------------------------------13-----14 slide down--|
D-12-/-14------------------------------------------------------------------------------------------------------|
A--------------------------------------------------------------------------------------------------------------|
E--------------------------------------------------------------------------------------------------------------|


have fun with that-

Leigh Hewitt, Melbourne.
"there ain't nothing like a friend who can tell you you're just pissing in the wind" -
Neil Young, Ambulance blues
Comments