Weebls Stuff - Amazing Horse Chords & Tabs

 

Weebls Stuff Chords & Tabs

Version: 2 Type: Tab 0 ratings
1 star 2 stars 3 stars 4 stars 5 stars
comments

Amazing Horse Tab

   
My first tab. If any mistakes are found, or improvements want to be suggested, 
please leave me a comment or send me an email: crabs4saale@aim.com :)

Intro (0:00-0:06)
E------------------------------------------------------------------------------|
B---------------------------------10-10-12-10---12-----------------------------|
G-11-11-13-11-----11-11-13-13-11------------------11-13-13-13-11---------------|
D--------------11--------------------------------------------------------------|
A------------------------------------------------------------------------------|
E------------------------------------------------------------------------------|

Horse Specifications (0:07-0:13)
E------------------------------------------------------------------------------|
B------------------------------------------------------------------------------|
G------11-11-13-11-------11-11-13-11----------11-11-13-11-------16-16-16-14-11-|
D-11-11-------------11-11-------------11-11-11-------------11-11---------------|
A------------------------------------------------------------------------------|
E------------------------------------------------------------------------------|
[ Tab from: http://www.guitartabs.cc/tabs/w/weebls_stuff/amazing_horse_tab_ver_2.html ]
Sweet Lemonade (0:15-0:25)
E----------------------------------------------------------------------------|
B----------------------------------------------------------------------------|
G-11-13-13-11---16-16-16-18-14-11-14-11-13-14-13-11-13-14--14-14-13-11--14-16|
D----------------------------------------------------------------------------|
A----------------------------------------------------------------------------|
E----------------------------------------------------------------------------|

--------------------------------------|
--------------------------------------|
-14-13-11--14-14-13-11--14-16-14-13-11|
--------------------------------------|
--------------------------------------|
--------------------------------------|

Solo (0:26-0:32)
E------------------|   ------------------------------------|
B------------------|   ------------------------------------|
G-14-14-13-11-11-11|X2 -14-14-14-16-16-16-12-12-12-14-14-14|
D------------------|   ------------------------------------|
A------------------|   ------------------------------------|
E------------------|   ------------------------------------|

Outro (o:33-0:43) =Male Part=
E--------------------------------------------------------------|
B-14-12-10-14--12-14-12-14-12-14-17-14--12-14-12-14-12-14-14-14|
G--------------------------------------------------------------|
D--------------------------------------------------------------|
A--------------------------------------------------------------|
E--------------------------------------------------------------|
=Woman Part=
E--------------------------------------------------|
B--------------------------------------------------|
G---11-13-14-11-11-14-11-14-11-13-14-11-14-14-13-11|
D-11-----------------------------------------------|
A--------------------------------------------------|
E--------------------------------------------------|

Shut up woman, get on my horse! (0:44-0:45)

E------------------------|
B------------------------|
G-16-16-16-18-14-11-11-11|
D------------------------|
A------------------------|
E------------------------|
Comments