Weebls Stuff - Amazing Horse Chords & Tabs

 

Weebls Stuff Chords & Tabs

Version: 1 Type: Bass Tab 0 ratings
1 star 2 stars 3 stars 4 stars 5 stars
comments

Amazing Horse Bass Tab

-----------------------------------------------------------------------------
			Amazing Horse - Weebl's Stuff
-----------------------------------------------------------------------------
Shut up drummer get on my horse

Tabbed By : viper565

Tuning: Standard
[ Tab from: http://www.guitartabs.cc/tabs/w/weebls_stuff/amazing_horse_btab.html ]
Main Riff:
G|--------------------------------------------------------------------------|
D|--4---4---4---4---4---4---4---4---7---7---7---7---------------------------|
A|--------------------------------------------------7---7---7---7-----------|
E|2---2---2---2---2---2---2---2---5---5---5---5---0---0---0---0-------------|x4

Synth Death:
G|--------------------------------------------------------------------------|
D|7--7-6--------7--7-6------------------------------------------------------|
A|-------7--7-7--------7--7-7-4--4-4-7--7-7-2--2-2-4--4-4-------------------|
E|--------------------------------------------------------------------------|x2 

Play main riff again and done.
=============================================================================
Comments