Wednesday 13 - London After Midnight Chords & Tabs

 

Wednesday 13 Chords & Tabs

Version: 1 Type: Tab 0 ratings
1 star 2 stars 3 stars 4 stars 5 stars
comments

London After Midnight Tab

   
-----------------------------------------------------------------------------
                     Wednesday 13 - London After Midnight
-----------------------------------------------------------------------------

Tabbed by: Metalrock4ever

Tuning: CGCFAD

Intro:
D|--------------------------------|
A|--------------------------------|
F|--------------------------9~-7~-|
C|-----------------------5~-9~-7~-|
G|-----------------------5~-7~-5~-|
C|-12x12x12x12x-4x4x4x4x-5~-------|


Verse:
(Second time: don't mute last chords)
D|------------------------------------------|
A|------------------------------------------|
F|-7-7x7x7x-----------------9-9x9x-7-7x7x7x-|
C|-7-7x7x7x-4-4x4x4x-5-5x5x-9-9x9x-7-7x7x7x-|  x2
G|-5-5x5x5x-4-4x4x4x-5-5x5x-7-7x7x-5-5x5x5x-|
C|----------4-4x4x4x-5-5x5x-----------------|


Pre-Chorus:
D|----------------------|
A|----------------------|
F|-5555------7777-6/777-|
C|-5555-5555-7777-6/777-|  
G|-3333-5555-5555-4/555-|
C|------5555------------|

D|-----------------------|
A|-----------------------|
F|-5555------------------|
C|-5555-5555-77-55-444-5-|
G|-3333-5555-77-55-444-5-|
C|------5555-77-55-444-5-|

Solo Part:
D|-3~----5~-5-3-2-3~---------------|
A|----3~-------------3~-5~-3~-2~-3-|
F|---------------------------------|
C|---------------------------------|
G|---------------------------------|
C|---------------------------------|


Chorus:
D|----------------------|
A|----------------------|
F|-7777---------99-7777-|
C|-7777-4444-55-99-7777-|  x2
G|-5555-4444-55-77-5555-|
C|------4444-55---------|

Solo Part:
D|----2~-5~-------|
A|-3~-------5~-3~-|
F|----------------|
C|----------------|  x2
G|----------------|
C|----------------|


Pre-Verse:
D|----------------------|
A|----------------------|
F|-7777---------99-7777-|
C|-7777-4444-55-99-7777-|
G|-5555-4444-55-77-5555-|
C|------4444-55---------|

Solo Part:
D|---0-2-0-2-3-2-0-2~-5-3-2-0-2-0----|
A|-3------------------------------3~-|
F|-----------------------------------|
C|-----------------------------------|
G|-----------------------------------|
C|-----------------------------------|


Verse 2:
(Second time: don't mute last chords)
D|------------------------------------------|
A|------------------------------------------|
F|-7-7x7x7x-----------------9-9x9x-7-7x7x7x-|
C|-7-7x7x7x-4-4x4x4x-5-5x5x-9-9x9x-7-7x7x7x-|  x2
G|-5-5x5x5x-4-4x4x4x-5-5x5x-7-7x7x-5-5x5x5x-|
C|----------4-4x4x4x-5-5x5x-----------------|


Pre-Chorus:
D|----------------------|
A|----------------------|
F|-5555------7777-6/777-|
C|-5555-5555-7777-6/777-|  
G|-3333-5555-5555-4/555-|
C|------5555------------|

D|-----------------------|
A|-----------------------|
F|-5555------------------|
C|-5555-5555-77-55-444-5-|
G|-3333-5555-77-55-444-5-|
C|------5555-77-55-444-5-|
[ Tab from: http://www.guitartabs.cc/tabs/w/wednesday_13/london_after_midnight_tab.html ]
Solo Part:
D|-3~----5~-5-3-2-3~---------------|
A|----3~-------------3~-5~-3~-2~-3-|
F|---------------------------------|
C|---------------------------------|
G|---------------------------------|
C|---------------------------------|


Chorus 2:
D|----------------------|
A|----------------------|
F|-7777---------99-7777-|
C|-7777-4444-55-99-7777-|  x2
G|-5555-4444-55-77-5555-|
C|------4444-55---------|

Solo Part:
D|----2~-5~-------|
A|-3~-------5~-3~-|
F|----------------|
C|----------------|  x2
G|----------------|
C|----------------|


Bridge:
D|----------------------|
A|----------------------|
F|-7777---------99-7777-|
C|-7777-4444-55-99-7777-|  
G|-5555-4444-55-77-5555-|
C|------4444-55---------|

Solo Part:
(I am not sure about the harmonies)
D|------------------------------------|
A|-------8h6--------------------------|
F|-7b-7b-----7h5-7--------------------|
C|-7b-7b-----------7-10-5-3-5-3-3h5-0-|
G|------------------------------------|
C|------------------------------------|

(Some of these notes may be wrong)
D|-----------------------10----15-13-10----10~-|
A|------------10-8-6---6----10----------13-----|
F|-------5-7~--------7-------------------------|
C|-0-3-5---------------------------------------|
G|---------------------------------------------|
C|---------------------------------------------|


Pre-Chorus:
D|----------------------|
A|----------------------|
F|-5555------7777-6/777-|
C|-5555-5555-7777-6/777-|  
G|-3333-5555-5555-4/555-|
C|------5555------------|

D|-----------------------|
A|-----------------------|
F|-5555------------------|
C|-5555-5555-77-55-444-5-|
G|-3333-5555-77-55-444-5-|
C|------5555-77-55-444-5-|

Solo Part:
D|-3~----5~-5-3-2-3~---------------|
A|----3~-------------3~-5~-3~-2~-3-|
F|---------------------------------|
C|---------------------------------|
G|---------------------------------|
C|---------------------------------|


Final Chorus:
D|----------------------|
A|----------------------|
F|-7777---------99-7777-|
C|-7777-4444-55-99-7777-|  x2
G|-5555-4444-55-77-5555-|
C|------4444-55---------|

D|--------------------|
A|--------------------|
F|-7777---------9~-7~-|
C|-7777-4444-5~-9~-7~-|
G|-5555-4444-5~-7~-5~-|
C|------4444-5~-------|

Solo Part:
D|----2~-5~-----------2~-5~-----------2~----5~----|
A|-3~-------5~-3~--3~-------5~-3~--3~----3~----3~-|
F|------------------------------------------------|
C|------------------------------------------------|
G|------------------------------------------------|
C|------------------------------------------------|


************************************

| /   slide up
| \   slide down
| h   hammer-on
| ~   vibrato
| x   Mute note
| b   Bend

************************************

If you have any comments/corrections, please say in either the comments box or leave me 
a message.
Good luck and enjoy!
Comments