Wednesday 13 - I Walked With A Zombie Chords & Tabs

 

I Walked With A Zombie Chords & Tabs

Wednesday 13 Chords & Tabs

Version: 2 Type: Tab 0 ratings
1 star 2 stars 3 stars 4 stars 5 stars
comments

I Walked With A Zombie Tab

Copyright Wednesday 13th 2005
Tabbed by: Mike Annan
Standard Tuning

Legend:
. palm mute

X\ pick slide

5
5
3x16 play it 16 times

6^(8) Bend the 6th fret so it sounds like the 8th fret. 


Intro

Guitar 1 & 2
|-------------------------------------------------------------------|
|-------------------------------------------------------------------|
|-------------------------------------------------------------------|
|-------------------------------------------------------------------|
|-3-3-7-3-3-3-3-3-3-3-3-3-3-3-3-3-8-8-8-8-8-8-8-8-8-8-8-8-10-10-8-8-|
|-------------------------------------------------------------------|
          . . . . . . . . . . . . . . . . . . . . . . . . . . . . .

|---------------------------------------------------------------------|
|---------------------------------------------------------------------|
|---------------------------------------------------------------------|
|---------------------------------------------------------------------|
|-3-3-7-3-3-3-3-3-3-3-3-3-3-3-3-3-8-8-8-8-8-8-8-8-10-10-10-10-8-8-8-8-|
|---------------------------------------------------------------------|
          . . . . . . . . . . . . . . . . . . . . . . . . . . . . . . 
Guitar 1
|--------|
|--------|
|--------|
|--------|
|-X\-----|
|-X\-----|

Guitar 1
|-----------------------------------------------------------|
|-----------------------------------------------------------|
|-9----9----9-10----10-12-10-9-9----9----9-10----10-12-10-9-|
|---10---10------10--------------10---10------10------------|
|-----------------------------------------------------------|
|-----------------------------------------------------------|

Guitar 2
|------------------------------------------------|
|------------------------------------------------|
|------------------------------------------------|
|------------------------------------------------|
|-7---7---7-8---8-10-8-7-7---7---7-8---8-10-8-7--|
|---8---8-----8------------8---8-----8-----------|

Verse
[ Tab from: http://www.guitartabs.cc/tabs/w/wednesday_13/i_walked_with_a_zombie_tab_ver_2.html ]
Guitar 1
|-----------------------|x4 Don't palm mute after the second time
|-----------------------|
|-9-----10----12---10---|
|-10x16-10x12-12x2-10x2-|
|-----------------------|
|-----------------------|
   .     .     .    . 
Guitar 2
|----------------------|x4 Don't palm mute after the second time
|----------------------|
|-5----10----12---10---|
|-5----10----12---10---|
|-3x16-8-x12-10x2-8-x2-|
|----------------------|
  .    .      .   .

Right Before the Chorus (See you in the grave yard at midnight...)

Guitar 1
|------------------------------|x4 Let these chords ring.
|------------------------------|
|-12-10-9----------------------|
|-12-10-10---------------------|
|------------------------------|
|------------------------------|

Guitar 2
|-----------------------------------|x4
|-----------------------------------|
|-----------------------------------|
|-12---10---------------------------|
|-10x8-8-x8-3-3-7-3-3-7-3-3-7-3-3-7-|
|-----------------------------------|

Chorus

Guitar 1
|-----------------------------------------------------------|
|-----------------------------------------------------------|
|-9----9----9-10----10-12-10-9-9----9----9-10----10-12-10-9-|
|---10---10------10--------------10---10------10------------|
|-----------------------------------------------------------|
|-----------------------------------------------------------|

Guitar 2
|------------------------------------------------|
|------------------------------------------------|
|------------------------------------------------|
|------------------------------------------------|
|-7---7---7-8---8-10-8-7-7---7---7-8---8-10-8-7--|
|---8---8-----8------------8---8-----8-----------|

Bridge (She makes me do everything she wants me to...)

Guitar 1
|-------------|
|-------------|
|-10----12----|
|-10----12----|
|-8-x16-10x16-|
|-------------|

Guitar 2
|-10------10------10------10------8-------|
|-13^(15)-13^(15)-13^(15)-13^(15)-10^(12)-|
|-----------------------------------------|
|-----------------------------------------|
|-----------------------------------------|
|-----------------------------------------|

Play a verse for the clapping and "Whoa-oh-oh-oh" part.

End it with
|--------------|
|--------------|
|-12-10--------|
|-12-10-10~~~~-|
|--------------|
|--------------|
Comments