Wednesday 13 - I Walked With A Zombie Chords & Tabs

 

I Walked With A Zombie Chords & Tabs

Wednesday 13 Chords & Tabs

Version: 1 Type: Tab 0 ratings
1 star 2 stars 3 stars 4 stars 5 stars
comments

I Walked With A Zombie Tab

   
-----------------------------------------------------------------------------
			     I Walked With A Zombie - Wednesday 13
-----------------------------------------------------------------------------
Artist: Wednesday 13
Song: I Walked With A Zombie
Album: Transylvania 90210: Songs of Death, Dying and The Dead.

Tabbed by: Daniel Hicks
Email:da9l88@hotmail.com

Tuning: Standard Tuning

Intro - Guitar 1 and 2: (muted)(Play 2x)
e|--------------------------------------------------------------------------|
B|--------------------------------------------------------------------------|
G|--------------------------------------------------------------------------|
D|--------------------------------------------------------------------------|
A|--------------------------------------------------------------------------|
E|-0-0-0-0-0-0-0-0-0-0-0-0-0-0-0-0-5-5-5-5-5-5-5-5-5-5-5-5-7-7-4------------|

Intro - Guitar 1: (un-muted)(Play 2x)
e|--------------------------------------------------------------------------|
B|--------------------------------------------------------------------------|
G|--------------------------------------------------------------------------|
D|-2-2-2-2-2-2-2-2-2-2-2-2-2-2-2-2-7-7-7-7-7-7-7-7-7-7-7-7-7-9-9-7-7-6------|
A|-2-2-2-2-2-2-2-2-2-2-2-2-2-2-2-2-7-7-7-7-7-7-7-7-7-7-7-7-7-9-9-7-7-6------|
E|-0-0-0-0-0-0-0-0-0-0-0-0-0-0-0-0-5-5-5-5-5-5-5-5-5-5-5-5-5-7-7-5-5-4------|

Intro - Guitar 2: (Play 1x)
e|--------------------------------------------------------------------------|
B|--------------------------------------------------------------------------|
G|--------------------------------------------------------------------------|
D|--------------------------------------------------------------------------|
A|--------------------------------------------------------------------------|
E|-4-0-4-0-4/5-0-5/7/5-4-4-4-0----------------------------------------------|

Into - continued Guitar 2: (Play 1x)
e|--------------------------------------------------------------------------|
B|--------------------------------------------------------------------------|
G|--------------------------------------------------------------------------|
D|--------------------------------------------------------------------------|
A|--------------------------------------------------------------------------|
E|-4-4-4-0-4-4-4-0-4/5-0-5/7/5-4-4-4-0--------------------------------------|

Verse Guitar 1 and 2: (muted) (Play 2x)
e|--------------------------------------------------------------------------|
B|--------------------------------------------------------------------------|
G|--------------------------------------------------------------------------|
D|--------------------------------------------------------------------------|
A|--------------------------------------------------------------------------|
E|-0-0-0-0-0-0-0-0-0-0-0-0-0-0-0-0-5-5-5-5-5-5-5-5-5-5-5-5-7-7-4------------|
[ Tab from: http://www.guitartabs.cc/tabs/w/wednesday_13/i_walked_with_a_zombie_tab.html ]
Verse continued Guitar 1 and 2: (un-muted) (Play 2x)
e|--------------------------------------------------------------------------|
B|--------------------------------------------------------------------------|
G|--------------------------------------------------------------------------|
D|-2-2-2-2-2-2-2-2-2-2-2-2-2-2-2-2-7-7-7-7-7-7-7-7-7-7-7-7-7-9-9-7-7-6------|
A|-2-2-2-2-2-2-2-2-2-2-2-2-2-2-2-2-7-7-7-7-7-7-7-7-7-7-7-7-7-9-9-7-7-6------|
E|-0-0-0-0-0-0-0-0-0-0-0-0-0-0-0-0-5-5-5-5-5-5-5-5-5-5-5-5-5-7-7-5-5-4------|

Bridge Guitar 1: (Play 3x)
e|--------------------------------------------------------------------------|
B|--------------------------------------------------------------------------|
G|--------------------------------------------------------------------------|
D|-8-8-8-8-8-8-8-8-7-7-7-7-7-7-7-7--2--6-2-2-6-2-2-6-2-2-6------------------|
A|-8-8-8-8-8-8-8-8-7-7-7-7-7-7-7-7--2--6-2-2-6-2-2-6-2-2-6------------------|
E|-7-7-7-7-7-7-7-7-5-5-5-5-5-5-5-5--0--4-0-0-4-0-0-4-0-0-4------------------|

Bridge Guitar 1: Continued
e|--------------------------------------------------------------------------|
B|-9-9-9-9-9-9-9-9----------------------------------------------------------|
G|-7-7-7-7-7-7-7-7----------------------------------------------------------|
D|-9-9-9-9-9-9-9-9----------------------------------------------------------|
A|-9-9-9-9-9-9-9-9----------------------------------------------------------|
E|-7-7-7-7-7-7-7-7--0-0-0-0-0-0-0 <---(the > 0 < are muted)-----------------|

Bridge Guitar 2: (Play 3x)
e|--------------------------------------------------------------------------|
B|--------------------------------------------------------------------------|
G|--------------------------------------------------------------------------|
D|-7~~5~~0~~~~~~~~----------------------------------------------------------|
A|--------------------------------------------------------------------------|
E|--------------------------------------------------------------------------|

Bridge Guitar 2: Continued
e|--------------------------------------------------------------------------|
B|--------------------------------------------------------------------------|
G|--------------------------------------------------------------------------|
D|-7~~5---------------------------------------------------------------------|
A|--------------------------------------------------------------------------|
E|--------------------------------------------------------------------------|

Ending Guitar 1: (Let It Fade)
e|--------------------------------------------------------------------------|
B|--------------------------------------------------------------------------|
G|--------------------------------------------------------------------------|
D|-9~~~7~~~2~~~~~~~~--------------------------------------------------------|
A|-9~~~7~~~2~~~~~~~~--------------------------------------------------------|
E|-7~~~5~~~0~~~~~~~~--------------------------------------------------------|

Ending Guitar 2: (Let It Fade)
e|--------------------------------------------------------------------------|
B|--------------------------------------------------------------------------|
G|--------------------------------------------------------------------------|
D|-7~~~5~~~2~~~~~~~~--------------------------------------------------------|
A|--------------------------------------------------------------------------|
E|--------------------------------------------------------------------------|

| /  slide up
| \  slide down
| h  hammer-on
| p  pull-off
| ~  vibrato
| +  harmonic
| x  Mute note
=============================================================================
Comments