Weakerthans - Leash Chords & Tabs

 

Leash Chords & Tabs

Weakerthans Chords & Tabs

Version: 1 Type: Tab 0 ratings
1 star 2 stars 3 stars 4 stars 5 stars
comments

Leash Tab

Standard Tuning

Intro
E--------------|---------------------------------------------------|
B----7*--------|---------------------------------------------------|
G-------7*-----|x4-------------------------------------------------|
D-7*-----------|---------------------------------------------------|
A--------------|---------------------------------------------------|
E--------------|---------------------------------------------------|

Verse Chorus
E--x---x---x---x-----|------------------------|---------------------|
B--3---3---3---3-----|--------3--3--3--3------|---------------------|
G--2---1---0---0-----|--------2--1--0--0------|---------------------|
D--0---0---0---4-----|x8------0--0--0--4------|x4-------------------|
A--0-----------0-----|------------------------|---------------------|
E--0-----------------|------------------------|---------------------|

[ Tab from: http://www.guitartabs.cc/tabs/w/weakerthans/leash_tab.html ]
Repeat Verse 8 times with this Solo
E--10--9-9-----9-12--9---|-----------------------------------------|
B-----------12-----------|-----------------------------------------|
G------------------------|-----------------------------------------|
D------------------------|-----------------------------------------|
A------------------------|-----------------------------------------|
E------------------------|-----------------------------------------|

Bass solo

E--x---x---x---x-----|------------------------|---------------------|
B--3---3---3---3-----|--------3--3--3--3------|---------------------|
G--2---1---0---0-----|--------2--1--0--0------|---------------------|
D--0---0---0---4-----|--------0--0--0--4------|---------------------|
A--0-----------0-----|------------------------|---------------------|
E--0-----------------|------------------------|---------------------|
Comments