We Are Scientists - Textbook Chords & Tabs

 

Textbook Chords & Tabs

We Are Scientists Chords & Tabs

Version: 2 Type: Tab

Textbook Tab

   
Verse 1
e|--------------------------------------------------------|
B|---0------0------0------0------0------0------0------0---|
G|-----1------1------1------1------1------1------1------1-|
D|--------2-------------2-------------2-------------2-----|(x2)
A|--------------------------------------------------------|
E|-0-------------0-------------0-------------0------------|

e|---0------0------0------0------0------0------0------0---|
B|-----2------2------2------2------2------2------2------2-|
G|--------1-------------1-------------1-------------1-----|
D|-2-------------2-------------2-------------2------------|
A|--------------------------------------------------------|
E|--------------------------------------------------------|

e|--------------------------------------------------------|
B|---0------0------0------0------0------0------0------0---|
G|-----1------1------1------1------1------1------1------1-|
D|--------2-------------2-------------2-------------2-----|
A|--------------------------------------------------------|
E|-0-------------0-------------0-------------0------------|

e|---0------0------0------0------0------0------0------0---|
B|-----2------2------2------2------2------2------2------2-|
G|--------1-------------1-------------1-------------1-----|
D|-2-------------2-------------2-------------2------------|
A|--------------------------------------------------------|
E|--------------------------------------------------------|

e|--------------------------------------------------------|
B|---2------2------2------2------0------0------0------0---|
G|-----1------1------1------1------1------1------1------1-|
D|--------2-------------2-------------4-------------4-----|
A|-0-------------0-------------2-------------2------------|
E|--------------------------------------------------------|

e|---0------0------0------0-------------------------------|
B|-----2------2------2------2----0------0------0------0---|
G|--------1-------------1----------1------1------1------1-|
D|-2-------------2--------------------2-------------2-----|
A|--------------------------------------------------------|
E|-----------------------------0-------------0------------|
Only play this one the first time
[ Tab from: http://www.guitartabs.cc/tabs/w/we_are_scientists/textbook_tab_ver_2.html ]
Chorus
e|-0------0-0-0-------0-0-0-dont----0-0-0-|
B|-0------0-0-0-------0-0-0-let-----0-0-0-|
G|-1------1-1-1-------1-1-1-strings-1-1-1-|
D|-2------2-2-2-------2-2-2-ring----2-2-2-|
A|-2------2-2-2-------2-2-2-here----2-2-2-|
E|-0------0-0-0-------0-0-0---------0-0-0-|

e|--------------------------------------------------------|
B|---2------2------2------2------0------0------0------0---|
G|-----1------1------1------1------1------1------1------1-|
D|--------2-------------2-------------4-------------4-----|
A|-0-------------0-------------2-------------2------------|
E|--------------------------------------------------------|



e|-------------------------------0------0------0------0---|
B|---0------0------0------0--------2------2------2------2-|
G|-----1------1------1------1---------1-------------1-----|
D|--------2-------------2------2-------------2------------|
A|--------------------------------------------------------|
E|-0-------------0----------------------------------------|

e|--------------------------------------------------------|
B|---2------2------2------2------0------0------0------0---|
G|-----1------1------1------1------1------1------1------1-|
D|--------2-------------2-------------4-------------4-----|
A|-0-------------0-------------2-------------2------------|
E|--------------------------------------------------------|

Verse 2 (same as verse 1 but only played once)

Chorus (same as first time but play this after to finish off the song)
e|---0------0------0------0-------------------------------|
B|-----2------2------2------2----0------0------0------0---|
G|--------1-------------1----------1------1------1------1-|
D|-2-------------2--------------------2-------------2-----|
A|--------------------------------------------------------|
E|-----------------------------0-------------0------------|

e|--------------------------------------------------------|
B|---2------2------2------2------0------0------0------0---|
G|-----1------1------1------1------1------1------1------1-|
D|--------2-------------2-------------4-------------4-----|
A|-0-------------0-------------2-------------2------------|
E|--------------------------------------------------------|

e|-0-|
B|-0-|
G|-1-|
D|-2-|
A|-2-|
e|-0-|