We Are Scientists - Rules Dont Stop Chords & Tabs

 

Rules Dont Stop Chords & Tabs

We Are Scientists Chords & Tabs

Version: 1 Type: Bass Tab

Rules Dont Stop Bass Tab

   
Song: Rules Don't Stop
Artist: We Are Scientists

BASS TAB

Intro:
No Bass Part

Verse:
A.
G ---5---5------|
D --------------|
A 33-3--3-------|
E --------------|

B.
G ---8---8------|
D --------------|
A 66-6--6-------|
E --------------|

C.
G --------------|
D --6----6------|
A --------------|
E 44-4--4-------|

D.
G --------------|
D --3----3------|
A --------------|
E 11-1--1-------|
*Those are ones, not elevens
E.
G ---3---3------|
D --------------|
A 11-1--1-------|
E --------------|
*Those are ones, not elevens

Play the above sets in this order:
ABCDCDAA
Then
ABCDCDAE

Listen for the strumming pattern if you're unsure how that is played.
Chorus:
G ---------------|
D ---------------|
A ---------------|
E 4-444-444-444-4|

G ---------------|
D ---------------|
A 6-666-666-666-6|
E ---------------|
[ Tab from: http://www.guitartabs.cc/tabs/w/we_are_scientists/rules_dont_stop_btab.html ]
G ---------------|
D ---------------|
A ---------------|
E 4-444-444-444-4|

G -------------------|
D -------------------|
A 1111-3333------1111|
E ----------4444-----|

**Throw this part in at the end when you play the chorus for the last time at the end of the song:
G ---------------------------|
D --------------6666-8888-10~|
A 8888-10101010--------------|
E ---------------------------|
*Those are tens, and ~ means let that note ring

Drum and Bass Part:
G ------------|
D ------------|
A 3~--33------| x2
E ------------|

"Its not as bad as they say...":
G -----------------------------------|
D -----------------------------------|
A ------------------33333333-66666666|
E 44444444-66666666------------------|

G --------------------------|
D --------------------------|
A ------------------22222222|
E 44444444-66666666---------|


The song follows this pattern:
Intro
Verse
Chorus
Verse
Chorus
Drum and Bass
"It's not as bad as they say..."
Chorus

Enjoy!
-maxio23