We Are Scientists - Lousy Reputation Chords & Tabs

 

Lousy Reputation Chords & Tabs

We Are Scientists Chords & Tabs

Version: 2 Type: Tab

Lousy Reputation Tab

   
intro/verse 1

e|--------------------------|
b|--------------------------|
G|-13-13-13-13-13-13-13-13--|
D|--------------------------|
A|-11-11-11-11-11-11-11-11--|
E|--------------------------| x many


chorus

e|-11-11-11-11-11-11-11-11-12-12-12-12-12-12-12-12-|
b|-12-12-12-12-12-12-12-12-12-12-12-12-12-12-12-12-|
G|-------------------------------------------------|
D|-------------------------------------------------|
A|-------------------------------------------------|
E|-------------------------------------------------|

e|-11-11-11-11-11-11-11-11-10-10-10-10-10-10-10-10-|
b|-12-12-12-12-12-12-12-12-12-12-12-12-12-12-12-12-|
G|-------------------------------------------------|
D|-------------------------------------------------|
A|-------------------------------------------------|
E|-------------------------------------------------|

verse 2

e|---------------------------------|
b|-9-9-9-9-9-9-9-9-9-9-9-9-9-9-9-9-|
G|---------------------------------|
D|-6-6-6-6-6-6-6-6-6-6-6-6-6-6-6-6-|
A|---------------------------------|
E|---------------------------------|
[ Tab from: http://www.guitartabs.cc/tabs/w/we_are_scientists/lousy_reputation_tab_ver_2.html ]
e|-11-11-11-11-11-11-11-11-11-11-11-11-11-11-11-11-|
b|-------------------------------------------------|
G|-8--8--8--8--8--8--8--8--8--8--8--8--8--8--8--8--|
D|-------------------------------------------------|
A|-------------------------------------------------|
E|-------------------------------------------------| x 2 (with bending at the
                                                     end of the second time)

then (still in the verse)

e|-11---------------           e|--------------------|
b|----9-9-12-12-9-9-           b|-12-12-12-12--------|(bend)
G|------------------           G|--------------------|
D|------------------           D|--------------------|
A|------------------           A|--------------------|
E|------------------ x 7 then  E|--------------------|


then chorus

then just bass for a bit then

e|-----------------------------------------------------------------|
b|-----------------------------------------------------------------|
G|-8-8-8-8-6-6-6-6-------------------------------------------------|
D|-----------------9-9-9-9-6-6-6-6-9-9-9-9-9-9-9-9-9-9-9-9-9-9-9-9-|
A|-----------------------------------------------------------------|
E|-----------------------------------------------------------------|

e|-----------------------------------------------------------------|
b|-----------------------------------------------------------------|
G|-8-8-8-8-6-6-6-6-------------------------------------------------|
D|-----------------9-9-8-8-6-6-6-6-9-9-9-9-9-9-9-9-9-9-9-9-9-9-9-9-|
A|-----------------------------------------------------------------|
E|-----------------------------------------------------------------|


then chorus x 4

the end