We Are Scientists - Its A Hit Chords & Tabs

 

Its A Hit Chords & Tabs

We Are Scientists Chords & Tabs

Version: 1 Type: Tab

Its A Hit Tab

intro/little bit after chorus

e|-------------------------------------------------------------------------|
b|-9-9-9-9-9-9-9---12-12-12-12-12-12-12------------------------------------|
G|-9-9-9-9-9-9-9---9--9--9--9--9--9--9-------------------------------------|
D|-------------------------------------------------------------------------|
A|-------------------------------------------------------------------------|
E|-------------------------------------------------------------------------|


verse

e|-------------------------------------------------------------------------|
b|-9-9-9-9-9-9-9---7-7-7-7-7-7-7--9-9-9-9-9-9-9---9-9-9-9-9-9-9------------|
G|-------------------------------------------------------------------------|
D|-------------------------------------------------------------------------|
A|-------------------------------------------------------------------------|
E|-------------------------------------------------------------------------|


chorus
[ Tab from: http://www.guitartabs.cc/tabs/w/we_are_scientists/its_a_hit_tab.html ]
e|-------------------------------------------------------------------------|
b|-12-12-------9-9-----12-12-------9-9-------------------------------------|
G|-------11-11-----9-9-------11-11-----9-----------------------------------|
D|-------------------------------------------------------------------------|
A|-------------------------------------------------------------------------|
E|-------------------------------------------------------------------------|

in the bit just after the 'break it down!' bit with just the guitar playing
the chorus riff the last few notes are played thusly

e|-------------------------------------------------------------------------|
b|-14-14--14-14--14-14-----------------------------------------------------|
G|-13-13--13-13--13-13-----------------------------------------------------|
D|-------------------------------------------------------------------------|
A|-------------------------------------------------------------------------|
E|-------------------------------------------------------------------------|


the entire song is made up of a combination of these dirrerent riffs. its
fairly simple so im sure you can figure it out.