We Are Scientists - Great Escape Chords & Tabs

 

Great Escape Chords & Tabs

We Are Scientists Chords & Tabs

Version: 3 Type: Tab

Great Escape Tab

-------------------------------------------------------------------------------
	     The Great Escape - We Are Scientists
-------------------------------------------------------------------------------
Tabbed by: Rags
Email: hywel.ragnauth@homecall.co.uk

Tuning: Drop D

FOLLOW EXACTLY
PLEASE RATE

  Intro:
e|-------------------------------------------------------------------|
B|-------------------------------------------------------------------|
G|--11-11--9-9--11-11--9-9--6-6----11-11--9-9--11-11--6-6-6-6--------|
D|--11-11--9-9--11-11--9-9--6-6----11-11--9-9--11-11--6-6-6-6--------|  x5
A|--9--9----7-7--9---9----7-7--4-4----9--9----7-7---9--9----4-4-4-4--|
D|-------------------------------------------------------------------|

  I got a great idea…
e|-----------------------------------------------------------------------------|
B|-----------------------------------------------------------------------------|
G|-----------------------------------------------------------------------------|
D|--12-12-12-12-12-12-12-12-12-12-12-12-12-12-12-12----------------------------|
A|--12-12-12-12-12-12-12-12-12-12-12-12-12-12-12-12----------------------------|
D|--12-12-12-12-12-12-12-12-12-12-12-12-12-12-12-12----------------------------|

e|-----------------------------------------------------------------------------|
B|-----------------------------------------------------------------------------|
G|-----------------------------------------------------------------------------|
D|--7-7-7-7-7-7-7-7-7-7-7-7-7-7-7-7--------------------------------------------|
A|--7-7-7-7-7-7-7-7-7-7-7-7-7-7-7-7--------------------------------------------|
D|--7-7-7-7-7-7-7-7-7-7-7-7-7-7-7-7--------------------------------------------|

e|-----------------------------------------------------------------------------|
B|-----------------------------------------------------------------------------|
G|-----------------------------------------------------------------------------|
D|--12-12-12-12-12-12-12-12-12-12-12-12-12-12-12-12----------------------------|
A|--12-12-12-12-12-12-12-12-12-12-12-12-12-12-12-12----------------------------|
D|--12-12-12-12-12-12-12-12-12-12-12-12-12-12-12-12----------------------------|

e|-----------------------------------------------------------------------------|
B|-----------------------------------------------------------------------------|
G|-----------------------------------------------------------------------------|
D|--7-7-7-7-7-7-7-7-7-7-7-7-7-7-7-7--------------------------------------------|
A|--7-7-7-7-7-7-7-7-7-7-7-7-7-7-7-7--------------------------------------------|
D|--7-7-7-7-7-7-7-7-7-7-7-7-7-7-7-7--------------------------------------------|

e|-----------------------------------------------------------------------------|
B|-----------------------------------------------------------------------------|
G|-----------------------------------------------------------------------------|
D|--9-9-9-9-9-9-9-9-9-9-9-9-9-9-9-9--------------------------------------------|
A|--9-9-9-9-9-9-9-9-9-9-9-9-9-9-9-9--------------------------------------------|
D|--9-9-9-9-9-9-9-9-9-9-9-9-9-9-9-9--------------------------------------------|


e|-----------------------------------------------------------------------------|
B|-----------------------------------------------------------------------------|
G|-----------------------------------------------------------------------------|
D|--12-12-12-12-12-12-12-12-12-12-12-12-12-12-12-12----------------------------|
A|--12-12-12-12-12-12-12-12-12-12-12-12-12-12-12-12----------------------------|
D|--12-12-12-12-12-12-12-12-12-12-12-12-12-12-12-12----------------------------|

e|---------------------------------------------------------------------------|
B|---------------------------------------------------------------------------|
G|---------------------------------------------------------------------------|
D|--9-9-9-9-9-9-9-9-9-9-9-9-9-9-9-9-----12-12-12-12-12-12-12-12--12--12--12--|
A|--9-9-9-9-9-9-9-9-9-9-9-9-9-9-9-9-----12-12-12-12-12-12-12-12--12--12--12--|
D|--9-9-9-9-9-9-9-9-9-9-9-9-9-9-9-9-----12-12-12-12-12-12-12-12--12--12--12--|

e|-------------------------------------------------------------------|
B|-------------------------------------------------------------------|
G|--11-11--9-9--11-11--9-9--6-6----11-11--9-9--11-11--6-6-6-6--------|
D|--11-11--9-9--11-11--9-9--6-6----11-11--9-9--11-11--6-6-6-6--------|  x3
A|--9---9---7-7---9--9----7-7--4-4-----9--9---7-7---9--9----4-4-4-4--|
D|-------------------------------------------------------------------|

  I got a great idea…
e|-----------------------------------------------------------------------------|
B|-----------------------------------------------------------------------------|
G|-----------------------------------------------------------------------------|
D|--12-12-12-12-12-12-12-12-12-12-12-12-12-12-12-12----------------------------|
A|--12-12-12-12-12-12-12-12-12-12-12-12-12-12-12-12----------------------------|
D|--12-12-12-12-12-12-12-12-12-12-12-12-12-12-12-12----------------------------|

e|-----------------------------------------------------------------------------|
B|-----------------------------------------------------------------------------|
G|-----------------------------------------------------------------------------|
D|--7-7-7-7-7-7-7-7-7-7-7-7-7-7-7-7--------------------------------------------|
A|--7-7-7-7-7-7-7-7-7-7-7-7-7-7-7-7--------------------------------------------|
D|--7-7-7-7-7-7-7-7-7-7-7-7-7-7-7-7--------------------------------------------|

e|-----------------------------------------------------------------------------|
B|-----------------------------------------------------------------------------|
G|-----------------------------------------------------------------------------|
D|--12-12-12-12-12-12-12-12-12-12-12-12-12-12-12-12----------------------------|
A|--12-12-12-12-12-12-12-12-12-12-12-12-12-12-12-12----------------------------|
D|--12-12-12-12-12-12-12-12-12-12-12-12-12-12-12-12----------------------------|
[ Tab from: http://www.guitartabs.cc/tabs/w/we_are_scientists/great_escape_tab_ver_3.html ]
e|-----------------------------------------------------------------------------|
B|-----------------------------------------------------------------------------|
G|-----------------------------------------------------------------------------|
D|--7-7-7-7-7-7-7-7-7-7-7-7-7-7-7-7--------------------------------------------|
A|--7-7-7-7-7-7-7-7-7-7-7-7-7-7-7-7--------------------------------------------|
D|--7-7-7-7-7-7-7-7-7-7-7-7-7-7-7-7--------------------------------------------|

e|-----------------------------------------------------------------------------|
B|-----------------------------------------------------------------------------|
G|-----------------------------------------------------------------------------|
D|--9-9-9-9-9-9-9-9-9-9-9-9-9-9-9-9--------------------------------------------|
A|--9-9-9-9-9-9-9-9-9-9-9-9-9-9-9-9--------------------------------------------|
D|--9-9-9-9-9-9-9-9-9-9-9-9-9-9-9-9--------------------------------------------|

e|-----------------------------------------------------------------------------|
B|-----------------------------------------------------------------------------|
G|-----------------------------------------------------------------------------|
D|--12-12-12-12-12-12-12-12-12-12-12-12-12-12-12-12----------------------------|
A|--12-12-12-12-12-12-12-12-12-12-12-12-12-12-12-12----------------------------|
D|--12-12-12-12-12-12-12-12-12-12-12-12-12-12-12-12----------------------------|

e|---------------------------------------------------------------------------|
B|---------------------------------------------------------------------------|
G|---------------------------------------------------------------------------|
D|--9-9-9-9-9-9-9-9-9-9-9-9-9-9-9-9----12-12-12-12-12-12-12-12--12--12--12---|
A|--9-9-9-9-9-9-9-9-9-9-9-9-9-9-9-9----12-12-12-12-12-12-12-12--12--12--12---|
D|--9-9-9-9-9-9-9-9-9-9-9-9-9-9-9-9----12-12-12-12-12-12-12-12--12--12--12---|

  Bridge:
e|-----------------------------------------------------------------------------|
B|-----------------------10-10--12-12--14-14-----------------------------------|
G|--11-11--13-13---9---9---11-11--13-13----------------------------------------|
D|--11-11--13-13---7---7----9--9----11-11--------------------------------------| x4
A|--9--9----11-11--------------------------------------------------------------|
D|-----------------------------------------------------------------------------|

  Solo:
e|-----------------------------------------------------------------------------|
B|-----------------------------------------------------------------------------|
G|--11-9-----11-9-----11-9-----11-9-----11-9-----9-----------------------------|
D|--------11--------11--------11--------11--------11---------------------------| x8
A|-----------------------------------------------------------------------------|
D|-----------------------------------------------------------------------------|

e|-----------------------------------------------------------------------------|
B|-----------------------------------------------------------------------------|
G|--11-11--9-9--11-11--9-9--6-6----11-11--9-9--11-11--6-6-6-6------------------|
D|--11-11--9-9--11-11--9-9--6-6----11-11--9-9--11-11--6-6-6-6------------------|  x3
A|--9--9-----7-7--9--9----7-7--4-4----9--9----7-7---9--9----4-4-4-4------------|
D|-----------------------------------------------------------------------------|

  I got a great idea…
e|-----------------------------------------------------------------------------|
B|-----------------------------------------------------------------------------|
G|-----------------------------------------------------------------------------|
D|--12-12-12-12-12-12-12-12-12-12-12-12-12-12-12-12----------------------------|
A|--12-12-12-12-12-12-12-12-12-12-12-12-12-12-12-12----------------------------|
D|--12-12-12-12-12-12-12-12-12-12-12-12-12-12-12-12----------------------------|

e|-----------------------------------------------------------------------------|
B|-----------------------------------------------------------------------------|
G|-----------------------------------------------------------------------------|
D|--7-7-7-7-7-7-7-7-7-7-7-7-7-7-7-7--------------------------------------------|
A|--7-7-7-7-7-7-7-7-7-7-7-7-7-7-7-7--------------------------------------------|
D|--7-7-7-7-7-7-7-7-7-7-7-7-7-7-7-7--------------------------------------------|

e|-----------------------------------------------------------------------------|
B|-----------------------------------------------------------------------------|
G|-----------------------------------------------------------------------------|
D|--12-12-12-12-12-12-12-12-12-12-12-12-12-12-12-12----------------------------|
A|--12-12-12-12-12-12-12-12-12-12-12-12-12-12-12-12----------------------------|
D|--12-12-12-12-12-12-12-12-12-12-12-12-12-12-12-12----------------------------|

e|-----------------------------------------------------------------------------|
B|-----------------------------------------------------------------------------|
G|-----------------------------------------------------------------------------|
D|--7-7-7-7-7-7-7-7-7-7-7-7-7-7-7-7--------------------------------------------|
A|--7-7-7-7-7-7-7-7-7-7-7-7-7-7-7-7--------------------------------------------|
D|--7-7-7-7-7-7-7-7-7-7-7-7-7-7-7-7--------------------------------------------|

e|-----------------------------------------------------------------------------|
B|-----------------------------------------------------------------------------|
G|-----------------------------------------------------------------------------|
D|--9-9-9-9-9-9-9-9-9-9-9-9-9-9-9-9--------------------------------------------|
A|--9-9-9-9-9-9-9-9-9-9-9-9-9-9-9-9--------------------------------------------|
D|--9-9-9-9-9-9-9-9-9-9-9-9-9-9-9-9--------------------------------------------|

e|-----------------------------------------------------------------------------|
B|-----------------------------------------------------------------------------|
G|-----------------------------------------------------------------------------|
D|--12-12-12-12-12-12-12-12-12-12-12-12-12-12-12-12----------------------------|
A|--12-12-12-12-12-12-12-12-12-12-12-12-12-12-12-12----------------------------|
D|--12-12-12-12-12-12-12-12-12-12-12-12-12-12-12-12----------------------------|

e|---------------------------------------------------------------------------|
B|---------------------------------------------------------------------------|
G|---------------------------------------------------------------------------|
D|--9-9-9-9-9-9-9-9-9-9-9-9-9-9-9-9----12-12-12-12-12-12-12-12--12--12--12---|
A|--9-9-9-9-9-9-9-9-9-9-9-9-9-9-9-9----12-12-12-12-12-12-12-12--12--12--12---|
D|--9-9-9-9-9-9-9-9-9-9-9-9-9-9-9-9----12-12-12-12-12-12-12-12--12--12--12---|