We Are Scientists - Cash Cow Chords & Tabs

 

Cash Cow Chords & Tabs

We Are Scientists Chords & Tabs

Version: 1 Type: Tab

Cash Cow Tab

   
Tabbed by: rikki
Email: gizmo_rik@hotmail.com

Tuning:standard boyo

Intro riff
e|---------------------------------------------------------------------------|
B|---------------------------------------------------------------------------|
G|---------------------------------------------------------------------------|
D|-12-12-x-12/14-14-x-14/12-12/14/12-x-x-------------------------------------|
A|-10-10-x-10/12-12-x-12/10-10/12/10-x-x-------------------------------------|
E|---------------------------------------------------------------------------|
can also be played as:
e|---------------------------------------------------------------------------|
B|-8-8-x-10--10-10-8--8-10-10-8-x-x------------------------------------------|
G|-x-x-x-x---x-x-x----x---x-x-x-x-x-----------------------------------------|
D|-5-5-x-5/7-7-x-7/5--5/7---7/5-x-x------------------------------------------|
A|---------------------------------------------------------------------------|
E|---------------------------------------------------------------------------|
Verse: Bass only

Then Verse Bridge Riff Thing
e|---------------------------------------------------------------------------|
B|---------------------------------------------------------------------------|
G|-12-12-11-11-9-9-7-7-4-4-4-4-4-4-4-4 (perhaps slight bending)--------------|
D|---------------------------------------------------------------------------|
A|---------------------------------------------------------------------------|
E|---------------------------------------------------------------------------|

e|---------------------------------------------------------------------------|
B|-12-12-11-11-9-9-7-7-/11-11-11-11-11-11-11-11(~)---------------------------|
G|---------------------------------------------------------------------------|
D|---------------------------------------------------------------------------|
A|---------------------------------------------------------------------------|
E|---------------------------------------------------------------------------|

Second Verse: Same as intro

Chorus:
e|---------------------------------------------------------------------------|
B|---------------------------------------------------------------------------|
G|-7-7-x-x-5-5-x-x-7-7-x-x-5-5-x-x-7-7-x-x-5-5-x-x-7-7-x-x-5/12-12-----------|
D|-x-x-x-x-x-x-x-x-x-x-x-x-x-x-x-x-x-x-x-x-x-x-x-x-x-x-x-x-x-x--x------------|
A|-5-5-x-x-3-3-x-x-5-5-x-x-3-3-x-x-5-5-x-x-3-3-x-x-5-5-x-x-3/10-10-----------|
E|---------------------------------------------------------------------------|

then:
[ Tab from: http://www.guitartabs.cc/tabs/w/we_are_scientists/cash_cow_tab.html ]
e|---------------------------------------------------------------------------|
B|---------------------------------8-8-8-8-8-8-10-10-7-7-7-7-7-7-7-7---------|
G|-7-7-x-x-5-5-x-x-7-7-x-x-5-5-x-x-x-x-x-x-x-x-x--x--x-x-x-x-x-x-x-x---------|
D|-x-x-x-x-x-x-x-x-x-x-x-x-x-x-x-x-5-5-5-5-5-5-7--7--4-4-4-4-4-4-4-4---------|
A|-5-5-x-x-3-3-x-x-5-5-x-x-3-3-x-x-------------------------------------------|
E|---------------------------------------------------------------------------|
then the little piece in the next verse is something like palm muting of:
e|---------------x-x-----------------------------------------------------------|
B|---------------8-8-----------------------------------------------------------|
G|---x---x---x---x-x-----------------------------------------------------------|
D|-5---5---5-----------------------------------------------------------------|
A|---------------------------------------------------------------------------|
E|---------------------------------------------------------------------------|
then repeat chorus riff, then before prebridge bit:

e|---------------------------------------------------------------------------|
B|---------------------------------------------------------------------------|
G|--9--9-x-x-x-x-------------------------------------------------------------|
D|--x--x-x-x-x-x-------------------------------------------------------------|
A|--7--7-x-x-x-x---(However may times)---------------------------------------|
E|---------------------------------------------------------------------------|
Then the solo - ey riff bit is this little arpeggio thing, not sure of string
though:
e|---------------------------------------------------------------------------|
B|---------------------------------------------------------------------------|
G|-------------2-2-------------2-4--------------------7-7-x-7-7-x-7----------|
D|-2-2-4-4-5-5-----2-2-4-4-5-5-------(repeated until)-x-x-x-x-x-x-x----------|
A|----------------------------------------------------5-5-x-5-5-x-5----------|
E|---------------------------------------------------------------------------|
then repeat the chorus bit and then chorus, then end on the start note and i
think thats it.
Pretty sure that the basic notes are correct throughout but some of the chord
positions may be a bit suspect, if you can find things that sound better feel
free to let me know or submit your own! we are scientists are an awesome band
and would like more people to have a goat their tabs, its really not difficult
suff!

| /  slide up
| \  slide down
| h  hammer-on
| p  pull-off
| ~  vibrato
| +  harmonic
| x  Mute note