Wayne Shorter - Mahjong Chords & Tabs

 

Mahjong Chords & Tabs

Wayne Shorter Chords & Tabs

Version: 1 Type: Tab 0 ratings
1 star 2 stars 3 stars 4 stars 5 stars
comments

Mahjong Tab

   
#----------------------------------PLEASE NOTE---------------------------------#
#This file is the author's own work and represents their interpretation of the #
#song. You may only use this file for private study, scholarship, or research. #
#------------------------------------------------------------------------------##


Artist: Wayne Shorter
Album: JuJu
Tab By: Mike Sarafinas

Heres the entire melody and chord changes
Repeat the melody twice, solo over the same changes

    Q=180
    Fm7
   4/4
    Gtr I
    Q   E E  E E  E E   E  E  Q   Q  Q    Q.    E  +H       Wx5
||--8-----------------|-----------------|-----------------|--------|
||o----11-9-----------|-----------------|-----------------|--------|
||----------10-8------|-8----12--10--7--|-7---------------|--------|
||---------------10-8-|---10------------|------10-(10)----|--------|
||o-------------------|-----------------|-----------------|--------|
||--------------------|-----------------|-----------------|--------|


  Dbmaj7
  Q   E E  E E  E E   E  E  Q   Q  Q    Q  E  E  +H       Wx5
|-8-----------------|-----------------|-----------------|--------|
|----11-9-----------|-----------------|-----------------|--------|
|---------10-8------|-8----12--10--7--|-8---------------|--------|
|--------------10-8-|---10------------|----8-10-(10)----|--------|
|-------------------|-----------------|-----------------|--------|
|-------------------|-----------------|-----------------|--------|


  Q=180(8=s8)
  D7+9           Ebm7   Ab7       Dbmaj7             Dbm7   Gb7
  Q.    Q Q  E    Q  Q   Q   Q    Q.   S S E E E E   Q.   E +H
|--------------|----------------|------------------|---------------|
|--------------|----------------|------------------|---------------|
|--------------|-----8----------|------8-6---------|---------------|
|-------6-8--6-|-10-----10------|-8--------8-6-----|---------------|
|-8------------|------------11--|--------------6---|-9----6-(6)----|
|--------------|----------------|----------------9-|---------------|

[ Tab from: http://www.guitartabs.cc/tabs/w/wayne_shorter/mahjong_tab.html ]
  Q=180
  Fm7
  Q   E E  E E  E E   E  E  Q   Q  Q    Q.    E  +H       Wx5
|-8-----------------|-----------------|-----------------|---------||
|----11-9-----------|-----------------|-----------------|--------o||
|---------10-8------|-8----12--10--7--|-7---------------|---------||
|--------------10-8-|---10------------|------10-(10)----|---------||
|-------------------|-----------------|-----------------|--------o||
|-------------------|-----------------|-----------------|---------||


Duration Legend
---------------
W - whole; H - half; Q - quarter; E - 8th; S - 16th; T - 32nd; X - 64th; a - acciaccatura
+ - note tied to previous; . - note dotted; .. - note double dotted
Uncapitalized letters represent notes that are staccato (1/2 duration)
Irregular groupings are notated above the duration line
Duration letters will always appear directly above the note/fret number it represents the
duration for.  Duration letters with no fret number below them represent rests.  Multi-
bar rests are notated in the form Wxn, where n is the number of bars to rest for.  Low
melody durations appear below the staff

Tablature Legend
----------------
 h   - hammer-on
 p   - pull-off
 b   - bend
 pb  - pre-bend
 r   - bend release (if no number after the r, then release immediately)
 /\  - slide into or out of (from/to "nowhere")
 s   - legato slide
 S   - shift slide
  - natural harmonic
[n]  - artificial harmonic
n(n) - tapped harmonic
 ~   - vibrato
 tr  - trill
 T   - tap
 TP  - trem. picking
 PM  - palm muting
\n/  - tremolo bar dip; n = amount to dip
 \n  - tremolo bar down
 n/  - tremolo bar up
/n\  - tremolo bar inverted dip
 =   - hold bend; also acts as connecting device for hammers/pulls
   - volume swell (louder/softer)
 x   - on rhythm slash represents muted slash
 o   - on rhythm slash represents single note slash

Misc Legend
-----------
 |  - bar
||  - double bar
||o - repeat start
o|| - repeat end
*|  - double bar (ending)
 :  - bar (freetime)
 $  - Segno
 &  - Coda
Tempo markers -  = BPM(8/16=s8/s16), where s8 = swing 8ths, s16 = swing 16ths


***************************************************************************************
* Generated using Power Tab Editor by Brad Larsen - http://powertab.guitarnetwork.org *
***************************************************************************************
Comments