Wayne Jon - Texas Funeral Chords & Tabs

 

Texas Funeral Chords & Tabs

Wayne Jon Chords & Tabs

Version: 1 Type: Bass Tab 0 ratings
1 star 2 stars 3 stars 4 stars 5 stars
comments

Texas Funeral Bass Tab

Texas Funeral - Jon Wayne

"From Dusk Till Dawn" Soundtrack

  verse 1 and 3
G|---------------------------------------------------------------------------------|
D|---------------------------------4-5-----------------------4-5--------------7----|
A|5-----5-----4-5-----5---2-4-5---------5-----7--5----4-5---------5-----7--5-----5-|
E|---5-----5-5-----5-----5-------5---------5--------5------5---------5-------------|
[ Tab from: http://www.guitartabs.cc/tabs/w/wayne_jon/texas_funeral_btab.html ]
  verse 2
G|--------------------------------------------------------|
D|------------5-----------------------4-5-----------------|
A|--2-4-5--------5-----7--5----4-5---------5-----7--5--5--|
E|5--------5--------5--------5------5---------5-----------|

chorus
            x3 (this is sometimes in a lower octave)
G|---------|--2-5-7-8-7-5-2---4-7-9-10-9-7-4-|
D|-----1-2-|3---------------5----------------|
A|-5-5-----|---------------------------------|
E|5--------|---------------------------------|

play the chorus 4 times instead of 3 for the second chorus.

  end
G|-----------------|
D|/5-4-------------|
A|-----5------45---|
E|----------57-----|

Tabbed by Achilles (blue_sincere@hotmail.com)

Comments