Wax - California Chords & Tabs

 

California Chords & Tabs

Wax Chords & Tabs

Version: 1 Type: Tab 0 ratings
1 star 2 stars 3 stars 4 stars 5 stars
comments

California Tab

   
California by Wax.


Intro Riff/Main riff

e-----------------3-2-0-2----------
B---------3---3---------3----------
G---2-0-2---2---2-------2----------
D----------------------------------
A----------------------------------
E----------------------------------


Verses

I'm gonna move to southern california, got me a ride and a reason to 

e------------------------------------------------------------------
B------------------------------------------------------------------
G-7-7-7-7-7-7-7-7-7-7-7-7-7-7-7-7-7-7-7-7-7-7-7-7-7-7-7-7-7-7-7-7-7-
D-7-7-7-7-7-7-7-7-7-7-7-7-7-7-7-7-7-7-7-7-7-7-7-7-7-7-7-7-7-7-7-7-7-
A-5-5-5-5-5-5-5-5-5-5-5-5-5-5-5-5-5-5-5-5-5-5-5-5-5-5-5-5-5-5-5-5-5-
E------------------------------------------------------------------

Ignore you.....
[ Tab from: http://www.guitartabs.cc/tabs/w/wax/california_tab.html ]
e---------------------------------------
B---------------------------------------
G-4-4-4-4-4-4-4-4-4-4-4-4-5-5-6-6-7-7-7-
D-4-4-4-4-4-4-4-4-4-4-4-4-5-5-6-6-7-7-7-
A-2-2-2-2-2-2-2-2-2-2-2-2-3-3-4-4-5-5-5-
E---------------------------------------



Then at the end of the verse it's

Could   be   by   for  you
e--------------------
B--------------------         (at the "you" play the main riff)
G-7---5-----7---5----
D-7---5-----7---5----
A-5---3-----5---3----
E--------------------



Then at the end when he's sayin' (why did i move.... to southern calfornia


e-3-2-0-3-2-0-3-2-0-3-2-0-3-2-0---------
B--------------------------------------
G-------------------------------------
D--------------------------------------
A------------------------------------
E-------------------------------------
Comments