Watt Mike - Against The 70s Chords & Tabs

 

Against The 70s Chords & Tabs

Watt Mike Chords & Tabs

Version: 1 Type: Bass Tab 0 ratings
1 star 2 stars 3 stars 4 stars 5 stars
comments

Against The 70s Bass Tab

Against the 70's
by Mike Watt w/ E. Vedder singing
from Ball-Hog or TugBoat
by ShiZZaRhcP@aol.com

this is a nice little song.
[ Tab from: http://www.guitartabs.cc/tabs/w/watt_mike/against_the_70s_btab.html ]
verse        rif 1                rif 2
g-------------------7---|-------------------------------------
d-----------------7--7-|---------------------------7---------
a-55555555---------|---------------------5-7----7------
e------------------------|-555555555--5-----------5----

Chorus
g------------------|--------------------------------  Now play
d------------------|--------------------------------- rif 2, then start
a-5--5--5--5----|--5-4---5-4---5-4---5-4----  over again
e----5--5-5--5--|-------5------5-----5------5---




Comments