Waters Muddy - I'm Your Hoochie Coochie Man Chords & Tabs

 

I'm Your Hoochie Coochie Man Chords & Tabs

Waters Muddy Chords & Tabs

Version: 1 Type: Tab 1 rating
1 star 2 stars 3 stars 4 stars 5 stars
comments

I'm Your Hoochie Coochie Man Tab

   
-------------------------------------------------------------------------------
       I’m Your Hoochie Coochie Man by Muddy Waters
-------------------------------------------------------------------------------
Tabbed by:ZeppelinHaze

Intro
Slow Blues=50
Guitar 1       Riff A 6x
12/8 Time
e|-------------|-----------------------------------------|
B|-------------|-----------------------------------------|
G|-------------|-2--ER-QR-----QR-------------------------|
D|----0--2-----|->---------------------0--2--------------|
A|-3--------3--|-------------------3--------3------------|
E|-------------|-----------------------------------------|

Pre-chorus
e|---------------------------------------------------------------------------|
B|---------------------------------------------------------------------------|
G|-2--ER--QR----QR------------0-1-2-0-1-2-0-1-2--0-1-2-----------------------|
D|->------------------0--2--2------------------------------------------------|
A|-----------------3---------------------------------------------------------|
E|---------------------------------------------------------------------------|

Chorus
e|---------------------------------------------------------------------------|
B|---------------------------------------------------------------------------|
G|-----------2--2-5--5------------2--2-5--5----------------------------------|
D|-0--0-4--4-----------0--0-4---4---------------------2-2--5--5--------------|
A|------------------------------------------0--0-4--4------------0--0-4--4---|
E|---------------------------------------------------------------------------|
                                      
e|------------------------------------|
B|------------------------------------|
G|-------------------------4--4--7--7-|
D|-2--2--5---5--2--2--6--6------------|
A|------------------------------------|
E|------------------------------------|
[ Tab from: http://www.guitartabs.cc/tabs/w/waters_muddy/im_your_hoochie_coochie_man_tab.html ]
First Chorus Ending
e|---------------------------------------------------------------------------|
B|---------------------------------------------------------------------------|
G|-----------2--2-5-5-2—0p2—0p2-0-----------2--------------------------------|
D|-0--0-4--4----------------------2-1-0---------0-1-2-2---0-2----------------|
A|--------------------------------------3-0---3---------3-----3--------------|
E|---------------------------------------------------------------------------|

Riff A 6x
Chorus

Second Chorus Ending
e|---------------------------------------------------------------------------|
B|---------------------------------------------------------------------------|
G|-----------2--2-5-5-2—0p2—0p2-0-----------2--------------------------------|
D|-0--0-4--4----------------------2-1-0---------0-1-2-2---0-2----------------|
A|--------------------------------------3-0---3---------3-----3--------------|
E|---------------------------------------------------------------------------|

Riff A 6x
Chorus

Third Ending
 *Bends on the fifth string 3 fret is a 1/4 bend.                        
e|---------------------------------------------------------------------------|
B|---------------------------------------------------------------------------|
G|-5-ER--ER--QR--WR--QR--------------------0-2--0—(0)-1—2//------------------|
D|---------------------------------0--1-2---->--0—(0)-1—2//------------------|
A|-----------------------0-*3b-*3b------>------------->->--------------------|
E|-------------------------->---->-------------------------------------------|

Great easy song for beginners. Have fun.

 >  Accented noted (will be shown on line below)
 s  slide
 h  hammer-on
 p  pull-off
 ~  vibrato
 +  harmonic
 x  Mute note
 ER Eighth Rest
 QR Quarter Rest
 // Tremolo Picking
 WR Whole Rest
===============================================================================
Comments