Waterdown - Bulletproof Chords & Tabs

 

Bulletproof Chords & Tabs

Waterdown Chords & Tabs

Version: 1 Type: Tab 0 ratings
1 star 2 stars 3 stars 4 stars 5 stars
comments

Bulletproof Tab

   
Waterdown
 bulletproof
---------------
This is a great band, they somehow play nu-metal and melodic hardcore, but more
melodic hardcore than nu-metal... check this band, either if you like 
post,emo,...hardcore or nu-metal. it's a band that makes kids, who listen to nu-
metal, familiar with hardcore. SUpéR
I normaly play bass so the technical fills are no job for me,
i've got the main riffs here:

drop d tuning.

intro,verse and main riff:

E|---------------------------------
B|---------------------------------
G|---------------------------------
D|---------------------------------
A|-0-0-0-0-3-3-3-3-8-8-8-8-5-5-5-5-
d|-0-0-0-0-3-3-3-3-8-8-8-8-5-5-5-5-

pre-chorus: every single day.... (not 100% correct)
[ Tab from: http://www.guitartabs.cc/tabs/w/waterdown/bulletproof_tab.html ]
E|-------------------------------------
B|-------------------------------------
G|-------------------------------------
D|-------------------------------------
A|-10-10-10-10-10-10-10-10-9-9-9-9-9-9-
d|-10-10-10-10-10-10-10-10-9-9-9-9-9-9-

chorus: "do you count your victims?..."

E|-------------------
B|-------------------
G|-------------------
D|-------------------
A|-3-2-0-2-1-0-0-0-0-
d|-3-2-0-2-1-0-0-0-0-

bridge: here guitar 1 and 2 play verry different things, it's too hard for 
        me, this is what I think I hear
E|-----------------
B|-----------------
G|-----------------
D|-----------------
A|-5/6-5/6-0-0-0-0-
d|-5/6-5/6-0-0-0-0-

     when they start singing;
E|-------------------------------
B|-------------------------------
G|--7-7-7-7-7-7-10-10-10-10-10-10-
D|--------------------------------
A|--5-5-5-5-5-5-8--8--8--8--8--8--
d|-------------------------------- ...DO YOU COUNT!...

end with;
d|-0-0-0-0-
Comments