Watchmen - Stereo Chords & Tabs

 

Stereo Chords & Tabs

Watchmen Chords & Tabs

Version: 1 Type: Bass Tab 0 ratings
1 star 2 stars 3 stars 4 stars 5 stars
comments

Stereo Bass Tab

   
A Great Song By A Great Band.
The Watchmen - Stereo
Standard Tuning (E A D G)
This Sounds Great But May Be A Little Different
Especially Because The Tailnotes Are So Hard To 
Figure Out. :-( 

Intro - Play Lightly
G|--------------------------------|
D|--------------------------------|
A|1-1-1-1-1-1-1-1---------1-1-1-1-|
E|----------------4-4-4-4---------|

Verse
G|--------------------------------|
D|--------------------------------|
A|1-1-1-1-1-1-1-1---------1-1-1-1-|
E|----------------4-4-4-4---------|

PreChorus
G|--------------------------------|
D|--------------------------------|
A|6\0-----6\0-----6\0-----6\0-----|
E|--------------------------------|
[ Tab from: http://www.guitartabs.cc/tabs/w/watchmen/stereo_btab.html ]
Chorus
G|--------------------|
D|--------------------|
A|1-1-1-1-1-----------|
E|----------4-4-4-4-4-|

Bridge
G|---------------------------------|
D|---------------------------------|
A|---------------------------------|
E|2-2-2-2-2-2-2-2-2-2-2-2-2-2-2/14-|

%Coda
G|--------------------------------|
D|--------------------------------|
A|----4-4-----4-4-----4-4-----4-4-|
E|4-4-----4-4-----4-4-----4-4-----|

G|--------------------------------|
D|--------------------------------|
A|--------------------------1-1---|
E|4-4-----2-2-------4-4-----------|

Outro
G|--------------|
D|--------------|
A|--------------|
E|1-----1-----1-|

Comments/Corrections: snoman@attcanada.net

P.S. The Watchmen Are A Great Band.  If You Have Any Tabs
Please Send Them In. 
Comments