Wasted Time - Rampage Chords & Tabs

 

Rampage Chords & Tabs

Wasted Time Chords & Tabs

Version: 2 Type: Bass Tab 0 ratings
1 star 2 stars 3 stars 4 stars 5 stars
comments

Rampage Bass Tab

Song: Rampage
Artist: Wasted Time


Riff 1
G------------------------------------------------------------
D------------------------------------------------------------
A------------------------------------------------------------	      
E-7-7-7-7----5-5-5-5----7-7-7-7----5-5-5-5---------        
      

Riff 2
G-------------------------------------
D-------------------------------------
A-------------------------------------
E---------7-5-4-3-0-----------------


Riff 3
G------------------------------------------------------------------------
D------------------------------------------------------------------------
A------------------------------------------------------------------------
E----0-0-0-0-0---5-5-5-5-5---3-3-3-3-3---7-7-7-7-7-------------

[ Tab from: http://www.guitartabs.cc/tabs/w/wasted_time/rampage_btab_ver_2.html ]
Riff 4
G--------------------------------------------------                               song structure:   
D--------------------------------------------------                                 Riff 1  x2
A--------------------------------------------------                                 Riff 2  x4
E----3-4---3-4---3-4------REST---------------                                       Riff 1  x2
                                                                                    Riff 2  x4
                                                                                    Riff 3  x2
Riff 5                                                                              Riff 1  x2
G------------------------------------------                                         Riff 2  x4
D------------------------------------------                                         Riff 4  x4
A------------------------------------------                                         Riff 5  x4
E----5-5-5----7----3-3-3-3-------------                                             Riff 6  x4
                                                                                    Riff 2  x1
                                                                               Repeat all again minus the 
Riff 6                                                                        first 2 riffs played and the 
G-------------------------------------------------------                        last riff played.
D-------------------------------------------------------
A-------------------------------------------------------
E---0-0-0-3---0-0-0-3---0-0-0-3------REST------

  This song rocks!!!!! And so does the band!!!!!!!
Comments