Wasp - Wild Child Chords & Tabs

 

Wild Child Chords & Tabs

Wasp Chords & Tabs

Version: 1 Type: Bass Tab 0 ratings
1 star 2 stars 3 stars 4 stars 5 stars
comments

Wild Child Bass Tab

   
WASP - "Wild Child"
Co-Writen & Played: Blackie Lawless

Originally Tab'd by: Unknown at BTA
Reedited by -Nyte-

The timing is real easy. Play along with the drums.
The exact number of hits may be off, but keep with 
drums, and change when needed. 

 Intro:
G-------------------------------------------------
D-------------------------------------------------
A------4----1-------------------------------------
E-1--------------1----1111111111-1-11-111-111-111-


G-------------------------------------------------
D-------------------------------------------------
A-444-444-444-444-111-111-111-111-------------6/1-
E--------------------------------111-111-111------

 Main:
 I ride ....
G-------------------------------------------------
D-------------------------------------------------
A-----------------4444-44-4444-44-1111-11-1111-11-
E-1111-11-1111-11---------------------------------



G-------------------------------------------------
D-------------------------------------------------
A-------------4-6-----------------4444-44-4444-44-
E-1111-11-111-----1111-11-1111-11-----------------


                               Cus.....
G-------------------------------------------------
D-------------------------------------------------
A-1111-11-1111-11--------------4-6--444444-666666-
E-----------------1111-11-111---------------------


[ Tab from: http://www.guitartabs.cc/tabs/w/wasp/wild_child_btab.html ]
G----------------------------------
D----------------------------------
A------------444444-666666-333333x-
E-1111111111-----------------------

 Chorus: 
 I'm a wild....
G---------------------------------------------------
D---------------------------------------------------
A-----------444444-666666------------4444444-111111-
E-111111111---------------1111111111----------------


G---------------------------------------------------
D---------------------------------------------------
A-----------444444-666666------------4444444-111111-
E-111111111---------------1111111111----------------


G-------------------------
D-------------------------
A-------------------------
E-111-111-111-111-111-111-

 Play Main:

 Play Chorus:

 Solo-(Basicaly Beat On It Till Your Hand Falls Off)
 A naked heat.....
G---------------------------------------------------
D---------------------------------------------------
A---------------------------------------------------
E-11111111111111111111111111111111111111111111111111

One exception, when it makes the change from guitar
to that wicked satans jungle theme I slide 1/14/1
Or somewhere around there. Then back to the beating.

 Play Chorus:

 Outro-(Play Till The Song Ends)
G---------------------------------------------------
D---------------------------------------------------
A---------------------------------------------------
E-11111111111111111111111111111111111111111111111111

Email NyteThorn@aol.com w/ questions comments

Comments