Wasp - The Idol Chords & Tabs

 

The Idol Chords & Tabs

Wasp Chords & Tabs

Version: 1 Type: Bass Tab 0 ratings
1 star 2 stars 3 stars 4 stars 5 stars
comments

The Idol Bass Tab

   
WASP "The Idol"
Written & Played By: Blackie Lawless

The timing is slower then this, but I hate stretched out tabs.
This is the milky version, not exact. It's tab'd so you know
what to hit. Add your own fills.

   INTRO
G|--------------------------|
D|--------------------------|
A|--6-------4----6-------4--|
E|------7------------7------|

G|-----------|
D|-----------|
A|---66-4-6--|
E|-6---------| Repeat 12 times

   BRIDGE
G|-----------------------------------------|
D|-----------------------------------------|
A|-2-2-44-4-66-66-6h4/2-2-44-4-66-66-6h4/2-|
E|-----------------------------------------|

G|------------------------------------|
D|------------------------------------|
A|-2-44-4-66-66-6/4/2-2-44-4-2-2------|
E|-------------------------------4-4-4|
[ Tab from: http://www.guitartabs.cc/tabs/w/wasp/the_idol_btab.html ]
   CHORUS
G|-----------------------------|
D|-----------------------------|
A|-6-66-6-4-44-4-2-22-2-4-44-4-|
E|-----------------------------| Repeat 2 times

   SOLO
G|------------------------------|
D|------------------------------|
A|-6-66-6-4-44-4-----------6-66-|
E|---------------4-4-2-1-4------| Repeat 4 times

  BRIDGE
G|-----------------------------------------|
D|-----------------------------------------|
A|-2-2-44-4-66-66-6h4/2-2-44-4-66-66-6h4/2-|
E|-----------------------------------------|

G|------------------------------------|
D|------------------------------------|
A|-2-44-4-66-66-6/4/2-2-44-4-2-2------|
E|-------------------------------4-4-4|

   CHORUS
G|-----------------------------|
D|-----------------------------|
A|-6-66-6-4-44-4-2-22-2-4-44-4-|
E|-----------------------------| Repeat 2 times

  SOLO
G|------------------------------|
D|------------------------------|
A|-6-66-6-4-44-4-----------6-66-|
E|---------------4-4-2-1-4------| Repeat Till Fade

Originaly Tab'd By: Nyte ~Nytethorn@aol.com~
Comments