Wasp - Hallowed Ground Chords & Tabs

 

Hallowed Ground Chords & Tabs

Wasp Chords & Tabs

Version: 1 Type: Bass Tab 0 ratings
1 star 2 stars 3 stars 4 stars 5 stars
comments

Hallowed Ground Bass Tab

 WASP "Hallowed Ground"

 This is the layout. Blackie rolls a couple of times,
 and hammers here and there, but you'll figure that out.
 It's easy. Stick to the rhythm, and add what feels natural.

 "Tune Half Step Down"

 About 40 seconds in Bass Intro:
G|----------------------------------------|
D|----------------------------------------|
A|-3/7----7----7----7--------------7----7-|
E|-----------------------0----0-----------|

G|-----------------------------------------------------|
D|-----------------------------------------------------|
A|-7/3---5---7---3---5---7---3---5---7---3---5---3-----|
E|---------------------------------------------------5-|

 Verse & Chorus:
G|----------------------------------------------------|
D|----------------------------------------------------|
A|-7-7--7-77--7-7-7--7-77--73-3--3-33--35-5--5-55--5--|
E|----------------------------------------------------|
[ Tab from: http://www.guitartabs.cc/tabs/w/wasp/hallowed_ground_btab.html ]
 Bridge:
G|--------------------------------------------|
D|--------------------------------------------|
A|-3-3--35-5--57-7--77-753-3-35-5--57-7--77-7-|
E|--------------------------------------------|

G|-----------------------------------------------------|
D|-----------------------------------------------------|
A|-53-3-53-5--57-7--77-753-3-35-5--5-------------------|
E|-----------------------------------5-5--55-5--55-5-55|

 This is how I like to play it:

 Verse & Chorus: 
 (Open with a slide to the 7th fret)
G|------------------------------------------------------------|
D|------------------------------------------------------------|
A|-7-7--7-77-7h9p7-7-7--7-77--753-3--3-33--0h3h5-5--5-55--3h5-|
E|------------------------------------------------------------|

 Bridge:
G|---------------------------------------------|
D|---------------------5-----------------------|
A|-3-3--35-5--57-7--77--7573-3-35-5--57-7--77--|
E|---------------------------------------------|

G|------------------------------------------------------|
D|-75---------------------------------------------------|
A|---753-3-35-5--57-7--77-753-3-35-5--5-----------------|
E|-------------------------------------5--55-5--55-5-55-|

 Tab'd By: Nyte ~Nytethorn@aol.com~
 Veteran in The Last Army
Comments