Wasp - Cries In The Night Chords & Tabs

 

Cries In The Night Chords & Tabs

Wasp Chords & Tabs

Version: 1 Type: Tab 0 ratings
1 star 2 stars 3 stars 4 stars 5 stars
comments

Cries In The Night Tab

CRIES IN THE NIGHT 
W.A.S.P. 
The Last Command 

Written by: Blackie Lawless 
Copyright 1985 Sanctuary Music Inc. 
Re-created by: Christopher Jaques 


       Intro                                                             
E--|------------------------------------------------------------------- 
B--|-----------------8--7--8--10--8--7h8p7----------------------- 
G--|-----9~~~-------------------------------------9~~~--------7h9 
D--|------------------------------------------------------------------- 
A--|------------------------------------------------------------------- 
E--|------------------------------------------------------------------- 
                                                                         

                                                                         
E--------------------------------------------------------12------12--- 
B---8--7--8--10--------8h10--------12~~~------------12-------- 
G----------------------------------------------------------------------- 
D----------------------------------------------------------------------- 
A----------------------------------------------------------------------- 
E----------------------------------------------------------------------- 
                                                                         

                                                                         
E---------------------------------------------15------15------17~~~-- 
B----12------------------------------------------17-----17------------- 
G---------14--16--14p12--------14^---------------------------------  
D-------------------------------------------------------------------------- 
A-------------------------------------------------------------------------- 
E-------------------------------------------------------------------------- 
                                                                         

                                                                         
E------------------------------------------------------------------------ 
B------------------------------------------------------------------------ 
G---12p11------------12p11------11--12p11---14p11--12---- 
D------------14~~~------------14------------------------------------- 
A------------------------------------------------------------------------ 
E------------------------------------------------------------------------ 
                                                                         

                                                                         
E----------------------------------------------------------------------------- 
B----------------------------------------------------------------------------- 
G--12-p-11----------------------------------------------------------------- 
D-------------14~~~------------12--14~~~-------------12--14~~~--- 
A------------------------12--14-------------------12--14------------------ 
E------------------------------------------------------------------------------ 
                                                                         

                                                                         
E------------------------------------------------------------------------------ 
B------------------------------------------------------------------------------ 
G------------------------------------------------------------------------------ 
D---------------------14~~~-----------------12~~~-------------14~~~-- 
A------12--14--12----------------12--14------------12--14-------------- 
E----------------------------15------------------------------------------------ 
                                                                         

                                                                         
E------------------------------------------------------------------------ 
B------------------------------------------------------------------------ 
G--------------12--11------------------------------------------------- 
D------------------------14~~~--------------------------------------- 
A------12--14--------------------------------------------------------- 
E----------------------------------------------------------------------- 
                                                                         

    Ooh, I'm sittin down ... continue pattern                            
E--------------2--------0-------|---------------------0--------|---------------- 
B-----------------0--------0----|------------------3-----------|---------------- 
G--------------------------------|--------0------2--------2----|---------------- 
D---------2----------2----------|-----2------0-----------------|---------------- 
A------2-------------------------|--3---------------------------|---------------- 
E---0----------------------------|-------------------------------|---------------- 
                                                                         

                                                                         
E-------------2--------0-----|--------------------0-------|-------------2----------0---- 
B----------------0--------0--|-----------------3----------|----------------0----------0- 
G-----------------------------|--------0-----2--------2---|------------------------------ 
D--------2-----------2-------|-----2-----0---------------|----------2--------2---------- 
A-----2-----------------------|--3------------------------|-------2----------------------- 
E--0--------------------------|----------------------------|---0--------------------------- 
                                                                         

                                                                         
E------------------------0-----|-----------2--------0-------|---- 
B---------------------3--------|--------------0--------0----|---- 
G----------0-----2--------2--|------------------------------|---- 
D--------2-----0--------------|--------2--------2----------|---- 
A------3-----------------------|-----2-----------------------|---- 
E-------------------------------|--0-------------------------|---- 
                                                                         

                                        Cries in the night....           
E---------------------0------|---------------------0-----------0--------------0- 
B------------------3-----0---|--------------------0-----------0---------------0- 
G---------0-----2-----------|---------------------0-----------0---------------0- 
D------2-----0---------------|-------------2--2--------5--5--------7---7------ 
A---3------------------------|--------------2--2--------5--5--------7---7------ 
E-----------------------------|--------------0--0--------3--3--------5-5----- 
                                                                         

    *Repeat for chorus*          Solo :Chris Holmes                                
E-----------------------||-------------------------------|---------------------------- 
B-----------------------||-------------------------------|---------------------------- 
G-----------------------||-----------------2--4~~~---|---------------------------- 
D------10--10\--------||--2-----4--5----------------|---------------------2-4~~ 
A------10-10\-------||------------------------------|-----2-----4--5------------ 
E------8------8\-------||------------------------------|----------------------------- 
                                                                         
[ Tab from: http://www.guitartabs.cc/tabs/w/wasp/cries_in_the_night_tab.html ]
                                                                         
E---------------|--------------------------------------------------|-------------------- 
B---------------|------------------------------------------3-------|-------------------- 
G---------------|--------------------------2--4h5p4------------|--------4~~~------ 
D-----------0--|--2--------0--2h4h5---------------------------|-------------------- 
A---------------|--------------------------------------------------|-------------------- 
E---------------|--------------------------------------------------|-------------------- 
                                                                         

                                                                         
E------------------------------|-------------------------------------------------------- 
B------------------------------|-------------------------------------------------------- 
G---2~~~--2~~~-----------|--------------0--2--0--------------------------------- 
D-----------------------0-0-|--0--2--4--------------4--2--5p4--2--0-----2~~~ 
A------------------------------|-------------------------------------------------------- 
E------------------------------|-------------------------------------------------------- 
                                                                         

                                                                         
E--------------------------------------------|------------------------ 
B--------------------------------------------|--15--12-------------- 
G-----------------------2-----2--2^~~~--|------------14--12---- 
D--------5p2--4--5-----5-----------------|------------------------ 
A--------------------------------------------|------------------------ 
E--------------------------------------------|------------------------ 
                                                                         

                                                                         
E------------------------------------------------------------|---------------------- 
B-----------------------------------15---12----------------|--15--12----------- 
G---14--12-------------14--12--------------14~~~-----|-----------14--12-- 
D--------------14--12--------------------------------------|---------------------- 
A-------------------------------------------------------------|---------------------- 
E-------------------------------------------------------------|---------------------- 
                                                                         

                                                                         
E---------------------------------|----------------------------------------------------------- 
B---------------------------------|15----17--15------17--15------------17^--17~~~- 
G---14--12--16~~~----------|-----------------16------------16----------------------- 
D--------------------------------|------------------------------------------------------------ 
A--------------------------------|------------------------------------------------------------ 
E--------------------------------|------------------------------------------------------------ 
                                                                         

                                                                         
E---|--17--15--14--15--17--15--14h15p14~~~------14--|--15~~~------------- 
B---|-------------------------------------------------------17------|---------17-17~~~ 
G---|----------------------------------------------------------------|----------------------- 
D---|----------------------------------------------------------------|----------------------- 
A---|----------------------------------------------------------------|----------------------- 
E---|----------------------------------------------------------------|----------------------- 
                                                                         

                                                                         
E--------14--15--|--17~~~--14--14~~~--|---------------------------------------- 
B-------------------|----------------------------|--------------------------------------- 
G-------------------|----------------------------|--12p11------------12p11-------- 
D-------------------|----------------------------|-----------14~~~------------14---- 
A-------------------|----------------------------|--------------------------------------- 
E-------------------|----------------------------|--------------------------------------- 
                                                                         

                                                                         
E----------------------|-------------------------------------------------------------|----------- 
B----------------------|-------------------------------------------------------------|----------- 
G------11--12p11--|--14p11--12p11------------------------------------11--|----------- 
D----------------------|----------------------14~~~----------------12h14------|----------- 
A----------------------|-------------------------------------12h14----------------|----------- 
E----------------------|-------------------------------------------------------------|----------- 
                                                                         

                                                           Outro solo                       
E---12^-----14^--|--15^-----17^--||------------------------|---------------- 
B---15------17---|--18-------20---||------------------------|---------------- 
G-------------------|------------------||-----------------2--4--|---------------- 
D-------------------|------------------||----2-----4--5--------|---------------- 
A-------------------|------------------||------------------------|---2-----4--5- 
E-------------------|------------------||------------------------|---------------- 
                                                                         

                                                                         
E-----------|------------------------------|-----------------------|---------- 
B-----------|------------------------------|-----------------------|---------- 
G-----------|------------------------------|-----------------------|---------- 
D---2--4--|-----5--5~~~--2--------5--|-----7-----4----------|---------- 
A-----------|------------------------------|--------------------5--|---------- 
E-----------|------------------------------|------------------------|---------- 
                                                                         

                                                                         
E------------------------|-----------------------------|------------------||---------- 
B------------------------|-----------------------------|------------------||---------- 
G---12~~~-------12--|--14~~~--14--12--14--|--16~~~~~~--||---------- 
D----------14-----------|----------------------------|------------------||---------- 
A------------------------|-----------------------------|------------------||---------- 
E------------------------|-----------------------------|------------------||---------- 
                                                                         
    Re-created by: Christopher Jaques                     
     comments, or corrections at: 
                                                                         
    chrisj@alphalink.com.au 
    craigj@alphalink.com.au             
Comments