Washya - Starcrossed Rose Chords & Tabs

 

Starcrossed Rose Chords & Tabs

Washya Chords & Tabs

Version: 1 Type: Tab 0 ratings
1 star 2 stars 3 stars 4 stars 5 stars
comments

Starcrossed Rose Tab

-----------------------------------------------------------------------------
                     Starcrossed Rose - Washya
-----------------------------------------------------------------------------
Tuning: Standard (EBGDAE)
Intro/Verses
E|-------------------------------------------------------------------|
B|-15----15p13-15-------15----15p13-15-------15----15p13----13-------|
G|----14----------14\12----14----------14\12----14-------14----14\12-|
D|-------------------------------------------------------------------|
A|-------------------------------------------------------------------|
E|-------------------------------------------------------------------|

Chorus
E|-9-999-9-8-8-888-8-6/-------3/6~-|
B|-8-888-8-7-7-777-7-5/-------3/6~-|
G|-6-666-6-5-5-555-5-3/-3h4h5---6~-|
D|---------------------------------|
A|---------------------------------|
E|---------------------------------|
[ Tab from: http://www.guitartabs.cc/tabs/w/washya/starcrossed_rose_tab.html ]
lead
E|---------------------------------------------------------------------8~-|
B|-------------------------------------------------------------8---8---7~-|
G|--/9~-7~-6~-6h7p6---------9-9bp7\5~-4-4h5p4---------7b-5p4-----7---7-5~-|
D|------------------9-5h6h7-------------------7-3h4h5--------5------------|
A|------------------------------------------------------------------------|
E|------------------------------------------------------------------------|

Tuning: Standard (EBGDAE)
Intro/Verses
E|-------------------------------------------------------------------|
B|-15----15p13-15-------15----15p13-15-------15----15p13----13-------|
G|----14----------14\12----14----------14\12----14-------14----14\12-|
D|-------------------------------------------------------------------|
A|-------------------------------------------------------------------|
E|-------------------------------------------------------------------|
Comments