Washya - Shallow People Chords & Tabs

 

Shallow People Chords & Tabs

Washya Chords & Tabs

Version: 1 Type: Tab 0 ratings
1 star 2 stars 3 stars 4 stars 5 stars
comments

Shallow People Tab

   
-----------------------------------------------------------------------------
                      Shallow People - Washya
-----------------------------------------------------------------------------
Tuning: Drop B (BF#BEG#C#)
Intro
B|------------------------------------------|
F#|-----------------------------------------|
B|------------------------------------------|
E|------------------------------------------|
G#|-6-5-0-0-1-2-0-0-6-5-0-0-1-2-0-0-1-1-1-1-|
C#|-6-5-0-0-1-2-0-0-6-5-0-0-1-2-0-0-1-1-1-1-|x4
PM                              * * * * * * 

Part 2 (play fast)
B|------------------------|
F#|-----------------------|
B|------------------------|
E|------------------------|
G#|-----------22-33----22-|
C#|-00-1-00-1-------33----|x10 
PM  ** * ** * ** ** ** ** 

Part 3 
B|----------------------------|
F#|---------------------------|
B|------------------------4\\-|
E|------------------------4\\-|
G#|-------2p1p0-6\5-2p1p0-2\\-|
C#|-1/12\-2p1p0-6\5-2p1p0-----|x5

Part 4 
B|------------------------|
F#|-----------------------|
B|------------------------|
E|------------------------|
G#|-2-1-0-1-0-2-1-0-1/6\\-|
C#|-2-1-0-1-0-2-1-0-1/6\\-|x15
[ Tab from: http://www.guitartabs.cc/tabs/w/washya/shallow_people_tab.html ]
Verses
B|------------------------------------------------------|
F#|-----------------------------------------------------|
B|------------------------------------------------------|
E|------------------------------------------------------|
G#|---------4---------0-------------5---3---------1---3-|
C#|-0-2-1-0---0-6-5-0---2-1-0-4-0-5---5---0-2-1-0---1---|
PM  * * * *   * * * *   * * * * * *       * * * *   *   

Chorus
B|--------------------------------------------------|
F#|-------------------------------------------------|
B|---11b--------------------------------------------|
E|--/9b--x13----------------------------------------|
G#|-----------/12\-3-5-6-8\\-1-3-4--3-5-6-8\\-2-3-5-|
C#|-----------/12\-3-5-6-8\\-1-3-4--3-5-6-8\\-2-3-5-|

breakdown
B|-----------------------------------------------------------------|
F#|----------------------------------------------------------------|
B|-----------------------------------------------------------------|
E|-----------------------------------------------------------------|
G#|-0-1-0-1-0-1-0-2-0-1-0-1-0-1-0-4-0-1-0-1-0-1-0-2-0-111111-55431-|
C#|-0-1-0-1-0-1-0-2-0-1-0-1-0-1-0-4-0-1-0-1-0-1-0-2-0-111111-55431-|
PM  * * * * * * * * * * * * * * * * * * * * * * * * * 
Comments