Washya - Nbt Chords & Tabs

 

Nbt Chords & Tabs

Washya Chords & Tabs

Version: 1 Type: Tab 0 ratings
1 star 2 stars 3 stars 4 stars 5 stars
comments

Nbt Tab

   
-------------------------------------------------------------------------------
                                NBT - Washya 
-------------------------------------------------------------------------------
Tuning: Drop D (DADgbe)
Intro
E|---------------------------------------------|
B|---------------------------------------------|
G|---------------------------------------------|
D|---------------------------------------------|
A|---------------------------------------------|
D|-4444-54-7777-87-4444-54-7777-87-8888-7-5-44-|x3
PM **** ** **** ** **** ** **** **          

Chorus
E|-------------------------------------------------|
B|-------------------------------------------------|
G|-------------------------------------------------|
D|-------------------------------------------------|
A|-----4444-54-7777-87-4444-54-7777-87-8888-7-5-44-|
D|-/x\-4444-54-7777-87-4444-54-7777-87-8888-7-5-44-|
[ Tab from: http://www.guitartabs.cc/tabs/w/washya/nbt_tab.html ]
E|-----------------------| |----------------------------|
B|-----------------------| |----------------------------|
G|-----------------------| |-5-7\\----------------5-7\\-|
D|-----------------------| |-5-7\\----------------5-7\\-|
A|-4444-54-77-4444-54-77-| |-3-5\\-00-3-00-3-00-3-3-5\\-|
D|-4444-54-77-4444-54-77-| |-------00-3-00-3-00-3-------|

Part 3
E|----------------------------------|
B|----------------------------------|
G|----------------------------------|
D|----5------5----5-----------------|
A|--------------------0h2h4h5p4p2p0-|
D|-44---4-44---44---4---------------|

Part 4
E|--------------------------------------------------|
B|--------------------------------------------------|
G|--------------------------------------------------|
D|--------------------------------------------------|
A|-55555555/88888888\77777777\66666--33-0-33-0-33-0-|
D|-55555555/88888888\77777777\66666--33-0-33-0-33-0-|

E|-----------------------------------------|
B|-----------------------------------------|
G|-----------------------------------------|
D|-----------------------------------------|
A|-55---55---55---88---88---88---77---77---|
D|-55-x-55-x-55-x-88-x-88-x-88-x-77-x-77-x-|
Comments