Washya - Divergence Chords & Tabs

 

Divergence Chords & Tabs

Washya Chords & Tabs

Version: 1 Type: Tab 0 ratings
1 star 2 stars 3 stars 4 stars 5 stars
comments

Divergence Tab

-----------------------------------------------------------------------------
                                  Divergence - Washya
-----------------------------------------------------------------------------
Tuning: Drop D (EBGDAD)
Intro
E|------------------------------------------|
B|------------------------------------------|
G|------------------------------------------|
D|----------------------------3p2p0---------|
A|----0h3h5----0h3h5----0h3h5-------3p2p0-2-|
D|-00-------00-------00-------------------2-|x3
PM **       **       **      
[ Tab from: http://www.guitartabs.cc/tabs/w/washya/divergence_tab.html ]
Verses
E|------------------------------------------------|
B|------------------------------------------------|
G|------------------------------------------------|
D|------------------------------------------------|
A|-----6\5/6-----6\5/6-----6\5/6------6\5\3-3\2\1-|
D|-000-6\5/6-000-6\5/6-000-6\5/6--000-6\5\3-3\2\1-|
PM ***       ***       ***        *** 

Chorus
E|-----------------------------------------------------------|
B|-----------------------------------------------------------|
G|-----------------------------------------------------------|
D|----------3/5-------------------------------7/10-----------|
A|-00000000-1/3-6-5-00000000-5-6-5-3-00000000-5/8--7-8-7-5-3-|
D|-00000000-----6-5-00000000-5-6-5-3-00000000------7-8-7-5-3-|
PM ********         ********         ********
Comments