Washboards - Cowboy Hum Chords & Tabs

 

Cowboy Hum Chords & Tabs

Washboards Chords & Tabs

Version: 1 Type: Bass Tab 0 ratings
1 star 2 stars 3 stars 4 stars 5 stars
comments

Cowboy Hum Bass Tab

   
     Song: Cowboy, Hum
     Band: The Washboards
    Album: Lambastics
Tabbed by: Craig G Telfer

This is the song from start -> finish.


		Verse
G|-----------------------|-----------------------|
D|-----------------------|-----------------------|
A|-----------------------|-----------------------|
E|-5-5-5-4-5-2-2-2-1-2-0-|-5-5-5-4-7-2-2-2-1-2-1-|

G|------------------------|-----------------------|
D|------------------------|-----------------------|
A|------------1-1-1-2-3-2-|-----------------------|
E|-3-3-3-3-3-3------------|-4-4-4-3-2-3-3-3-2-1-0-|



		Guitar Break One
G|---------------------------------|
D|----------7-7-7-7-3-3-3-3--------|
A|-5--5-5-5-----------------3-3-3-3|
E|---------------------------------|


[ Tab from: http://www.guitartabs.cc/tabs/w/washboards/cowboy_hum_btab.html ]
		Guitar Break Two
G|---------------------------------|----------------------------------|
D|---------7-7-7-7-3-3-3-3-3-3-3-3-|----------7-7-7-7-----------------|
A|5--5-5-5-------------------------|-5--5-5-5---------3-3-3-3-3-3-3-3-|
E|---------------------------------|----------------------------------|


	Wierd Third Guitar Break
G|----17----18----19----18-|----17----18----19----18-|
D|-16----17----18----17----|-16----17----18----17----|
A|-------------------------|-------------------------|
E|-------------------------|-------------------------|


		Orchestral Swell
G|------------------------------------------------------------|
D|------------------------------------------------------------|
A|------------------------------------------------------------|
E|-3-3-3-3-3-3-3-3-3-3-3-3-3-3-3-3-3-3-3-3-3-3-3-3-3-3-3-3/16-|


This is how the song sould be played:

Verse					: x2
Guitar Break One		: x4
Verse					: x2
Guitar Break Two	     : x2
Verse					: x2
Wierd Third Guiar Break   : x2
Orchestral Swell	     : x1
Verse				     : x2
Orchestral Swell		: x1

If you have any comments, questions suggestions or fashion tips then e-mail 
me at charlatan_3@hotmail.com

Thank you all very much

Craig G Telfer

Comments