Warren Stuart - Bitchy Woman Chords & Tabs

 

Bitchy Woman Chords & Tabs

Warren Stuart Chords & Tabs

Version: 1 Type: Tab 0 ratings
1 star 2 stars 3 stars 4 stars 5 stars
comments

Bitchy Woman Tab

This is my creations.  I'm not a big musician, but I do know good songs when i hear them.
I'm trying to get in with a group named Danger Kitty they are a local group at my school.

e-------9-9-9-9-9-9--12--7-7--9|--9-9-9-9-9-9--12--7-7--9|
B-------9-9-9-9-9-9--12--7-7--9|--9-9-9-9-9-9--12--7-7--9|
G------------------------------|-------------------------|
D------------------------------|-------------------------|
A------------------------------|-------------------------|
E------------------------------|-------------------------|
[ Tab from: http://www.guitartabs.cc/tabs/w/warren_stuart/bitchy_woman_tab.html ]
e-------7-7-7-7--5-5-5-5--3--3-|--5--5-5-5---------------|
B-------7-7-7-7--5-5-5-5--3--3-|--5--5-5-5---------------|
G------------------------------|-------------------------|
D------------------------------|-------------------------|
A------------------------------|-------------------------|
E------------------------------|-------------------------|

This is all of it except repeat it a few times.  I've been playin for about four months and
this is my first full song.  I may add on some new parts to it and maybe through in a few 
chords.  So if you just keep checkig back this will probably be the only parts to my new song.
If you have any suggestions to my song email me at sexyboystuart@kycom.net.  

Note:  This is the artists original song and it was added on by the artist.  Any reproduction
of this song on cds is prohibbited unless given written permission.
Comments