Warlock - Burning The Witches Chords & Tabs

 

Burning The Witches Chords & Tabs

Warlock Chords & Tabs

Version: 1 Type: Tab 0 ratings
1 star 2 stars 3 stars 4 stars 5 stars
comments

Burning The Witches Tab

Band: Warlock
Song: Burnin the Witches
Date Tabbed: May 3, 2003
Tabbed by: Ronda      Darkmystress86@aol.com
If you have any questions about this tab please email me. I do warn you it is 
not 100 % correct but I know it is pretty accurate. Check it out!

*STANDARD TUNING
           Intro..............  
----------------------------------------------------------------------------|
----------------------------------------------------------------------------|
----------------------------------------------------------------------------|
------5--8----10--5------5---8----10---5------5---8---10---5-----5----8-----|
------5--8----10--5------5---8----10---5------5---8---10---5-----5----8w.b.-|
------3--6----8---3------3---6-----8---3------3---6----8---3-----3----6-----|

  P.M.           P.M.          Play this 4 times
----------------------------------------------------------------------------|
----------------------------------------------------------------------------|
----------------------------3--3-------------------------------8---10-10----|
---3/5-------8/5------------3--3----3/5------8/5---------------8---10-10----|
---3/5-------8/5------------1--1----3/5------8/5---------------6----8--8----|
---1/3-3-3---6/3-3-3-3-3-3----------1/3-3-3--6/3-3-3-3-3-3------------------|

When the devil is coming.......    
--------------------------------------------------------------|
--------------------------------------------------------------|
--------------------------8--8--------------------------10-10-|
-10-10-10-10-10-10-10-10--8--8--------------------------10-10-|
-10-10-10-10-10-10-10-10--6--6--10-10-10-10-10-10-10-10--8--8-|
--8--8--8--8--8--8--8--8--------8---8--8--8--8--8--8--8-------|

A virgin will die........
|------------------------------------------|
|------------------------------------------|
|------------------------------------------|
|------------------------------------------|
|-12-12-12-12-12-12-12/15-15-15-15-15-15-15|
|-10-10-10-10-10-10-10/13-13-13-13-13-13-13|


      P.M.       P.M.    Play this 4 times     P.M.
-------------------------------------------------------------------|
-------------------------------------------------------------------|
-------------------------3--3----------------------------8--10-10--|
--3/5------8/5-----------3--3----3/5------8/5------------8--10-10--|
--3/5------8/5-----------1--1----3/5------8/5------------6--8---8--|
--1/3-3-3--6/3-3-3-3-3-3---------1/3-3-3--6/3-3-3-3-3-3------------|

 Thats what you were callin'.....  
-------------------------------------------------------------------|
-------------------------------------------------------------------|
---------------------------8--8-----------------------------10-10--|
--10-10-10-10-10-10-10-10--8--8-----------------------------10-10--|
--10-10-10-10-10-10-10-10--6--6---10-10-10-10-10-10-10-10---8---8--|
---8--8--8--8--8--8--8--8----------8--8--8--8--8--8--8--8----------|
[ Tab from: http://www.guitartabs.cc/tabs/w/warlock/burning_the_witches_tab.html ]
A hellcat or a witch......
|------------------------------------------|
|------------------------------------------|
|------------------------------------------|
|------------------------------------------|
|-12-12-12-12-12-12-12/15-15-15-15-15-15-15|
|-10-10-10-10-10-10-10/13-13-13-13-13-13-13|


CHORUS
Burnin the witches....       
-----------------------|----------------------|--------------------------|
-----------------------|----------------------|--------------------------|
-----------------8--8--|----------------8--5--|------------------8--5-5--|
--5--8---10--5---8--5--|--5--8--10--5---8--5--|--5--8---10---5---8--5-5--|
--5--8---10--5---6--3--|--5--8--10--5---6--3--|--5--8---10---5---6--3-3--|
--3--6----8--3---------|--3--6---8--3---------|--3--6----8---3-----------|

     P.M.         P.M.          
----------------------------------------------------------------|
----------------------------------------------------------------|
--------------------------3-3-------------------------8--10-10--|
--3/5-------8/5-----------3-3--3/5------8/5-----------8--10-10--|
--3/5-------8/5-----------1-1--3/5------8/5-----------6---8--8--|
--1/3-3-3---6/3-3-3-3-3-3------1/3-3-3--6/3-3-3-3-3-3-----------|

A soul of the virgin...                          Can find no peace....
-------------------------------------------------------------------|
-------------------------------------------------------------------|
---------------------------8--8-----------------------------10-10--|
--10-10-10-10-10-10-10-10--8--8-----------------------------10-10--|
--10-10-10-10-10-10-10-10--6--6---10-10-10-10-10-10-10-10---8---8--|
---8--8--8--8--8--8--8--8----------8--8--8--8--8--8--8--8----------|

|------------------------------------------|
|------------------------------------------|
|------------------------------------------|
|------------------------------------------|
|-12-12-12-12-12-12-12/15-15-15-15-15-15-15|
|-10-10-10-10-10-10-10/13-13-13-13-13-13-13|

CHORUS

     P.M.       P.M.          Play this 4 times
----------------------------------------------------------------|
----------------------------------------------------------------|
------------------------3--3--------------------------8---10-10-|
-3/5------8/5-----------3--3--3/5------8/5------------8---10-10-|
-3/5------8/5-----------1--1--3/5------8/5------------6----8--8-|
-1/3-3-3--6/3-3-3-3-3-3-------1/3-3-3--6/3-3-3-3-3-3------------|

During Solo
----------------------------------------------------------------------------------|
----------------------------------------------------------------------------------|
--8-----8-----8-----8-8----------10----10----10----10-10-----8-----8-----8-----8-8|
--8-----8-----8-----8-8----------10----10----10----10-10-----8-----8-----8-----8-8|
--6-6-6-6-6-6-6-6-6-6-6--8-8-8-8--8-8-8-8-8-8-8-8-8-8--8-6-6-6-6-6-6-6-6-6-6-6-6-6|
----------------------------------------------------------------------------------|

CHORUS

|-----------------------|
|-----------------------|
|-----------------------|
|----8--7--5--3--2--0---|
|-----------------------|
|-----------------------|
There's 2 guitars during this part but this is all I got so far

Ending
|-----------------|
|---3----33---3---|
|---3----33---3---|
|---1----11---1---|
|-----------------|


Hopefully I made this clear for you guys, it's a very easy song to play. 
It's got some bad ass,hard 80's riffs and it's fun to play. Have fun.

P.M.= Palm Muting
W.b.=whammy bar
Comments