Warfare Revival - Act On Instinct Chords & Tabs

 

Act On Instinct Chords & Tabs

Warfare Revival Chords & Tabs

Version: 1 Type: Tab 0 ratings
1 star 2 stars 3 stars 4 stars 5 stars
comments

Act On Instinct Tab

2. Act on instinct
guitar tab       drop D tuning           W/distortion


PM…………………………………………………………………………………………
--------------------------------------------------------------------------------------------------------------:
------------------------------------------------------------------------------------------------------------------:
----------------------------------------------------------------------------------------------------------:
-0-0-0-0-0-0-0-0-0-0-0-0-0-0-0-0-0-0-0-0-0-0-0-0-0-0-0-0-0-0-0-0-0-0-0-0-0-0-0-0-0-0-------:
------------------------------------------------------------------------------------------------------------------:
-------------------------------------------------------------------------------------------------------:
				
-----------------------------------------------------------------------------------------------------------:
-----------------------------------------------------------------------------------------------------------: 
-----------------------------------------------------------------------------------------------------------: 
------------------------------------------4-2-5-2-4-4--2-4-2-7-10-------4-2-5-2-4-4--2-4-2-7-10:
-4-2-5-2-4-4--2-4-2-7-10--repeat 4 times----------------------------------------------------------:
-4-2-5-2-4-4--2-4-2-7-10--repeat 4 times----------------------------------------------------------:


------------------------------------------------------------------------------------------------------------:
------------------------------------------------------------------------------------------------------------ :
------------------------------------------------------------------------------------------------------------ :
--4-2-5-2-4-4--2-4-2-7-10---------4-2-5-2-4-4--2-4-2-7-10--------4-2-5-2-4-4--2-4-2-7-10--:
------------------------------------------------------------------------------------------------------------:
------------------------------------------------------------------------------------------------------------:


                       

---------------------4------------6--------------------------------------6vb----------4---------------:
-------------------6--------------------------------4-----------------4---------------------------------6/\-----:
-------------------------------------------------------------------------------------------------------------:
--------------------------------------------------------------------------------------------------------:
-----------------------------------------------------------------------------------------------------------------:
-----------------------------------------------------------------------------------------------------------------:



---------------------4------------6---------------------------10-12P--------8-------6--------4------:
--------------6----------------------------------4---------------------------------------------------------------:
--------------------------------------------------------------------------------------------------------------:
-------------------------------------------------------------------------------------------------------:-------
------------------------------------------------------------------------------------------------------------:--
--------------------------------------------------------------------------------------------------------:------



------------------------------------------------------------------------------------------------------------:
-----------------------------------------------------------------------------------------------------------: 
-----------------------------------------------------------------------------------------------------------: 
------------------------------------4-2-5-2-4-4--2-4-2-7-10-------4-2-5-2-4-4--2-4-2-7-10------:
-4-2-5-2-4-4--2-4-2-7-10--:--------------------------------------------------------------------------:
-4-2-5-2-4-4--2-4-2-7-10--:------- ------------------------------------------------------------------:

[ Tab from: http://www.guitartabs.cc/tabs/w/warfare_revival/act_on_instinct_tab.html ]
------------------------------------------------------------------------------------------------------------:-
------------------------------------------------------------------------------------------------------------ :
------------------------------------------------------------------------------------------------------------ :
-4-2-5-2-4-4--2-4-2-7-10--------4-2-5-2-4-4--2-4-2-7-10--------4-2-5-2-4-4--2-4-2-7-10-----:-
--------------------------------------------------------------------------------------------------------------:
-------------------------------------------------------------------------------------------------------------:
 

-------------------------------------------------------------------------------------------------------------:
-------------------------------------------------------------------------------------------------------------: 
-------------------------------------------------------------------------------------------------------------: 
-------------------------------------------------------------------------------------------------------------:
*4-2-5-2-4-4--2-4-2-7-10--------4-2-5-2-4-4--4-2-4-10-7----%4-2-5-2-4-4--4-2-4-7-10--------------------------:
*4-2-5-2-4-4--2-4-2-7-10--------4-2-5-2-4-4--4-2-4-10-7----%4-2-5-2-4-4--4-2-4-7-10--------------------------:


solo
-------6--4-PH-----------7----9----11---------12--------------------------------10--------13--12--9--:
-------------------6--------------------------------------13---------------13-----------------------:
---------------------------------------------------------------------------12------------------------------------:
--------------------------------------------------------------------------------------------------------:
-----------------------------------------------------------------------------------------------------------------:
-----------------------------------------------------------------------------------------------------------------:


------------------------------------------------------------------------------10-----------------------------:
----11---10---9----------9--------9vb------------------------------13------------13---------------------:
----------------------------------------------10/13---------12-------------------------12----------------------:
-----------------------------------------------------------------------------------------------------------------:
-----------------------------------------------------------------------------------------------------------------:
-----------------------------------------------------------------------------------------------------------:


        
---------------------4------------6---------------------------10-12P--------8-------6----------------------:
----6------------------------------------4----------------------------------------------------6-----------------:
------------------------------------------------------------------------------------------------------------------:-
-----------------------------------------------------------------------------------------------------------------:
------------------------------------------------------------------------------------------------------------------:
-----------------------------------------------------------------------------------------------------------------:



------------------------------------------------------------------------------------------------------------:
-----------------------------------------------------------------------------------------------------------: 
-----------------------------------------------------------------------------------------------------------: 
------------------------------------4-2-5-2-4-4--2-4-2-7-10-------4-2-5-2-4-4--2-4-2-7-10------:
-4-2-5-2-4-4--2-4-2-7-10--:--------------------------------------------------------------------------:
-4-2-5-2-4-4--2-4-2-7-10--:------- ------------------------------------------------------------------:


-------------------------------------------------------------------------------------------------------------:
------------------------------------------------------------------------------------------------------------ :
------------------------------------------------------------------------------------------------------------: 
------------------------------------4-2-5-2-4-4--2-4-2-7-10--------4-2-5-2-4-4--2-4-2-7-10/2---:
-4-2-5-2-4-4--2-4-2-10-7------------------------------------------------------------------------------:
-4-2-5-2-4-4--2-4-2-10-7---------- -------------------------------------------------------------------:
Outro


--------------------------------------------------------------------------------------------------------------:
-------------------------------------------------------------------------------------------------------------:
--------------------------------------------------------------------------------------------------------------:
-------------------------------------------------------------------------------------------------------0-----:
-------------------------------------------------------------------------------------------------2------0-----:
0-0-0-0-0-0-1-1-1-1-1-1-2-2-2-2-2-2-3-3-3-3-3-3-4-4-4-4-4-4-5-5-5-5-5-5-5-5------3/\-- 0---:




Comments