Ward Julia - Battle Hymn Of The Republic Chords & Tabs

 

Battle Hymn Of The Republic Chords & Tabs

Ward Julia Chords & Tabs

Version: 1 Type: Tab 1 rating
1 star 2 stars 3 stars 4 stars 5 stars
comments

Battle Hymn Of The Republic Tab

#-------------------------------PLEASE NOTE------------------------------------#
#This file is the author's own work and represents their interpretation of the #
#song. You may only use this file for private study, scholarship, or research. #
#------------------------------------------------------------------------------#


Battle Hymn of the Republic by Julia Ward

Tabbed by Paul Baxter


March Tempo

E |-----------|-------------------------|------------------------|
B |-----------|-------------------------|-----0-0----------------|
G |-----------|-------------------0---2-|-4---------2-0----0-----|
D |--------0--|-0---0-0---------0-------|-0-----------0--------4-|
A |-----------|-2---------3-2-----------|------------------------|
E |-----------|-------------------------|------------------------|
[ Tab from: http://www.guitartabs.cc/tabs/w/ward_julia/battle_hymn_of_the_republic_tab.html ]
|-------------------------|------------------------|-------------------------|
|-------------------------|------------------------|-------------------------|
|-------------0-----0-----|------------------------|-------------------0---2-|
|-2---2-2---4-2---4-2---2-|-0---2-0-----0----0---0-|-0---0-0---------0-------|
|-3-----------------------|-2---------2-2----------|-2---------3-2-----------|
|-------------------------|------------------------|-------------------------|

|---------------|-------------|----------|
|-0-0-0---------|-------------|----------|
|-------2-0--0--|-2--2--0-----|----------|
|---------0--0--|-2--2--0--4--|-5--------|
|---------------|-3--3--2--5--|-5--------|
|---------------|----------5--|-7--------|

Chorus

|-----------------------|-----------|
|-----------------------|-----------|
|-----------------0---2-|-4----0----|
|-0-------------0-------|-0---------|
|-2------3--2-----------|-----------|
|-----------------------|-----------|

|-----------------------|-----------|-----------------------|------------|
|-----------------------|-----------|-----------------------|------------|
|-----------0-----0-----|-----------|-----------------0---2-|-4----0--0--|
|-2------4--2---4-----2-|-0---------|-0-------------0-------|-0-------0--|
|-3---------------------|-2----2----|-2------3--2-----------|------2-----|
|-----------------------|-----------|-----------------------|------------|

|-------------|----------|
|-------------|----------|
|-2--2--0-----|----------|
|-2--2--0--4--|-5--------|
|-3--3--2--5--|-5--------|
|----------5--|-7--------|

#End of file.
Comments