War Craft 3 - Power Of The Horde Chords & Tabs

 

Power Of The Horde Chords & Tabs

War Craft 3 Chords & Tabs

Version: 1 Type: Tab 0 ratings
1 star 2 stars 3 stars 4 stars 5 stars
comments

Power Of The Horde Tab

   
War Craft 3 - Power Of The Horde

This is an awesome Power Metal song. It reminds me of Anthrax
meets Armoured Saint.

p=pull off
h=hammer on
//repeat note

Intro:
D--------------------------------------------2-3---||
A-2-----7-8-8-7-8-7-10h7p8p7-----7-8-8-7-8-7-0-1-3-||
E-0-0-0----------------------0-0-----------------1-||
Play Twice - Then the second guitar goes an octave up
[ Tab from: http://www.guitartabs.cc/tabs/w/war_craft_3/power_of_the_horde_tab.html ]
Verse:
D-------------||------3-----|-----------|-------2-3---||
A-2-------3---||-2-----3----|-2-----2---|-------0-1-3-||
E-0///-----1--||-0///---1---|-0/////--1-|-0////-----1-||

Solo Piece Before Verse:
G-7-9-7-10-10-10-9-|

Solo Piece Before Verse:
G-7-9-7-10-10-10-9-| (you can also bend the 10's on 9)

Chorus:	3x Then 
D--------------------------||-2-3---|
A----7----6----8----7----6-||-0-1-3-|
E-0/---0/---0/---0/---0/---||-----1-|
Comments