War - Why Cant We Be Friends Chords & Tabs

 

Why Cant We Be Friends Chords & Tabs

War Chords & Tabs

Version: 1 Type: Bass Tab 0 ratings
1 star 2 stars 3 stars 4 stars 5 stars
comments

Why Cant We Be Friends Bass Tab

"Why can't we be friends" by War
Bass part by Francisco "Poncho" Tomaselli
Tabbed by Dan Bogosian (UtBDan)
Visit UtBDan's band at:
http://www.geocities.com/underthbed/

INTRO

G ---------|
D ---------|
A ---------|
E -0--3--5-|

EVERYTHING ELSE
[ Tab from: http://www.guitartabs.cc/tabs/w/war/why_cant_we_be_friends_btab.html ]
G ----------------|
D ---88---88---88-|
A ----------------|
E -6---------6----|

G --------------------------------------|
D -7----7---7----5--------5--3--------5-|
A ------------------------------5---3---|
E --55----5--------33-------------------|

Pretty easy song. Still catchy.
Comments