Wan Long Kok - Chinese Takeout Chords & Tabs

 

Chinese Takeout Chords & Tabs

Wan Long Kok Chords & Tabs

Version: 1 Type: Tab 0 ratings
1 star 2 stars 3 stars 4 stars 5 stars
comments

Chinese Takeout Tab

Guitar Tabs for Wan Long Kok's Chinese Takeout
Music and Lyrics By Wan Long Kok
Tabbed out by Dinny Ghafar
http://www.wanlongkoksucks.cjb.net

Guitar Tuned half a step lower, transposed to dropped-D

Tab Index (for the tab impared) 
h --> Hammer On	    * --> Natural Harmonic
p --> Pull Off	    (7)-> Sustain
x --> Ghost Note    / --> Slide Up
p.m-> Palm Mute	    \ --> Slide Down


 =======
 |Intro| (Use flanger - width & regen full blast)
 =======

eb|--17-17-17----15-15----12-12----15----| 
Bb|--17-17-17----15-15----12-12----15----| 
Gb|------------------------------------o-| 
db|------------------------------------o-| 
Ab|--------------------------------------| 
Db|--------------------------------------| Repeat this twice


 =========
 | Verse | (Use flanger/chorus - slight effect)
 =========
              
eb|-----------------|
Bb|-----------------|
Gb|--(6)------(4)---|
db|--(6)------(4)---|
Ab|--(4)------(2)---|
Db|-----------------| Play with variation

[ Tab from: http://www.guitartabs.cc/tabs/w/wan_long_kok/chinese_takeout_tab.html ]
 ==========
 | Chorus | (Distortion)
 ==========

eb|--------------------------|
Bb|--------------------------|
Gb|--------------------------|
db|--4-4-4-4-4----2-2-2-2-2--|
Ab|--4-4-4-4-4----2-2-2-2-2--|
Db|--4-4-4-4-4----2-2-2-2-2--|


 ========
 |Bridge| (Slight Distortion)
 ========

  p.m--------------------->
eb|---------------------------|
Bb|---------------------------|
Gb|---------------------------|
db|--6-6-6-6-6----5-5-5-5-5---|
Ab|--4-4-4-4-4----4-4-4-4-4---|
Db|---------------------------|


 =======
 |Outro| (Clean/Chorus)
 =======

eb|------------------------|
Bb|------------------------|
Gb|-------6-----------4/6--|
db|---------5\-----0-------|
Ab|--4---4-------2---------|
Db|------------------------| Repeat till fade


~~~~~~~~~~~~~~~~~~
| Arrangement:-  |
| Intro      x2  |
| Verse      x4  |
| Chorus     x2  |
| Verse      x4  |
| Chorus     x2  | 
| Verse      x4  |
| Chorus     x2  |
| Bridge     x4  |
| Chorus     x4  |
| Outro          |
~~~~~~~~~~~~~~~~~~
Comments