Walsh Joe - The Confessor Chords & Tabs

 

The Confessor Chords & Tabs

Walsh Joe Chords & Tabs

Version: 1 Type: Tab 0 ratings
1 star 2 stars 3 stars 4 stars 5 stars
comments

The Confessor Tab

Walsh,Joe The Confessor   
 Tabbed By Timothy L Kilpatrick timothyleekilpatrick@yahoo.com 
 Open D tuning DADF#Ad first half of song
 Standard E 4:05 on the rhytmm guitar and a open E on the slide.
 Thank you everyone that has ever posted you rock. Especially
 The Rain song. 

 d|-0--------|--0-------|--2--------|-0---------|--6-------|                                                                                 
 A|---4------|--0-------|--0--------|---4-------|--7-------|
F#|-----5----|--5-------|--0--------|-----5-----|--5-------| 
 D|-------7--|--6-------|--0--------|-------7---|--0-------|
 A|----------|--0-------|--0--------|-----------|--0-------|
 D|----------|----------|--0--------|-----------|----------|

 d|--7-------|----------------|-------------|---------------|
 A|--0-------|----------------|-------------|---------------|                                                                                                                                                                                                                                  
F#|--8-------|----------------|-------------|---------------| 
 D|--0-------|------0---0---0-|--3p0---0----|3p0------------|
 A|--0----0--|--3/5---5---5---|------5---3\5|----5--5p3-/-12|
 D|--0----0--|----------------|-------------|-------5p3-/-12| 

 d|---------------|-----------|-----------------|------------|
 A|---------------|-----------|-----------------|------------|
F#|---------------|-----------|-----------------|------------|
 D|-----0---0---0-|-3p0--0----|-3p0-----------0-|-blank------|
 A|-3/5---5---5---|-----5--3/5|-----5p3-/-12--0-|------------| 
 D|---------------|-----------|-----5p3-/-12----|------------|

 d|---------------|-------------|--------------------2-------|
 A|---------------|-------------|--------------------0-------|
F#|---------------|-------------|--------------------0-------| 
 D|-----0---0---0-|-3p0---0---0-|-3p0----------------0-------|
 A|-3/5---5---5---|-----5---5---|-----5--5p3---3p0-----------|
 D|---------------|-------------|--------5p3---3p0-----------| 

 d|--------------|-------------|--------------|-------------+12-| 
 A|--------------|-------------|--------------|-------------+12-| 
F#|--------------|-------------|--------------|-------------+12-| 
 D|-----0---0---0|-3p0---0---0-|-----0---0---0|-3p0---0---0-----| 
 A|-3/5---5---5--|-----5---5---|-3/5---5---5--|-----5---5-------|
 D|--------------|-------------|--------------|-----------------| 

 d|---------------|--------------|-------------|------------+12-| 
 A|---------------|--------------|-------------|------------+12-| 
F#|---------------|--------------|-------------|------------+12-| 
 D|---------------|-----0---0--0-|-3p0---0---0-|-----0---0------| 
 A|-3h5--5p3--3p0-|-3/5---5---5--|-----5---5---|-3/5---5---5----| 
 D|-3h5--5p3--3p0-|--------------|-------------|----------------|

   
   2:42 Lyrics you will need to hear the song to get the feel
  since I can`t post lyrics here. 
 
   .........................................
 d|-0-------------------------|-0-----------------------------| 
 A|-0-------------------------|-0-----------------------------| 
F#|-6-------------------------|-6-----------------------------| 
 D|-0-------------------------|-0-----------------------------| 
 A|-8-------------------------|-7-----------------------------| 
 D|-0-------------------------|-0-----------------------------| 

   .............................. 
 d|-0-------------------------|-0-----------------------------| 
 A|-0-------------------------|-4-----------------------------| 
F#|-5-------------------------|-0-----------------------------| 
 D|-7-------------------------|-0-----------------------------| 
 A|-0-------------------------|-0-----------------------------| 
 D|-0-------------------------|-0-----------------------------| 
[ Tab from: http://www.guitartabs.cc/tabs/w/walsh_joe/the_confessor_tab.html ]
   .......................     .......... 
 d|-0-------------------------|-0-----------------------------|
 A|-5-------------------------|-0-----------------------------| 
F#|-0-------------------------|-6-----------------------------| 
 D|-4-------------------------|-4-----------------------------| 
 A|-0-------------------------|-0-----------------------------| 
 D|-0-------------------------|-0-----------------------------| 

   ...................................
 d|-0-------------------------|-4-------------4---------------| 
 A|-0-------------------------|-5-------------5---------------| 
F#|-3-------------------------|-0-------------6---------------| 
 D|-5-------------------------|-0-------------0---------------|
 A|-0-------------------------|-0-------------0---------------|
 D|-0-------------------------|-0-------------0---------------| 

                       .....................................
 d|-4------------0------------|-------------------------------| 
 A|-5------------5------------|-------------------------------| 
F#|-5------------4------------|-------------------------------|
 D|-0------------0------------|-------------------------------| 
 A|-0------------0------------|-------------------------------| 
 D|-0-------------------------|-------------------------------|

 d|----------------|---------------|-----------------2--------|
 A|----------------|---------------|-----------------0--------| 
F#|----------------|---------------|-----------------0--------|
 D|----------------|-----0---0---0-|-3p0---0----0----0--------|
 A|-3h5---5p3--3p0-|-3/5---5---5---|-----5---5-------0--------| 
 D|-3h5---5p3--3p0-|---------------|-----------------0--------| 

  ........................, ................
 d|-0------------------------|-0------------------------------| 
 A|-0------------------------|-0------------------------------| 
F#|-6------------------------|-6------------------------------| 
 D|-0------------------------|-0------------------------------| 
 A|-8------------------------|-7------------------------------| 
 D|-0------------------------|-0------------------------------| 

   ...........................................................
 d|-0------------------------|-0------------------------------|
 A|-0------------------------|-4------------------------------|  
F#|-5------------------------|-3------------------------------| 
 D|-7------------------------|-0------------------------------| 
 A|-0------------------------|-0------------------------------| 
 D|-0------------------------|-0------------------------------| 

   .........................................................
 d|-0------------------------|-0------------------------------|
 A|-0------------------------|-0------------------------------| 
F#|-6------------------------|-6------------------------------|
 D|-0------------------------|-0------------------------------| 
 A|-8------------------------|-7------------------------------| 
 D|-0------------------------|-0------------------------------| 

   .....................................................   
 d|-0------------------------|--------------------------------| 
 A|-0------------------------|--------------------------------|
F#|-3------------------------|--------------------------------| 
 D|-5------------------------|--------------------------------| 
 A|-0------------------------|--------------------------------| 
 D|-0------------------------|--------------------------------|

 d|---------------|---------------|-------------|
 A|  -------------|---------------|-------------|
F#|---------------|---------------|-------------| the song changes
 D|---------------|-----0---0---0-|-3p0---0---0-| to standard E
 A|-3h5--5p3--3p0-|-3/5---5---5---|-----5---5---|   Here
 D|-3h5--5p3--3p0-|---------------|-------------| 
  
   Haven`t figuered out how to wirte the slide yet will post   
   shortly .With the overdubs of course
   4:05                  4:51  4:57
 e|-----|---------------|-----|----------------------------0----|
 B|-----|---------------|-----|----------------------------0----|
 D|-----|---------------|-----|---------------------------------| 
 G|-9---|-long drum part|-9---|-2-2---2-2--2-2---7--------------| 
 A|-7---|--sininging----|-7---|-0-0---0-0--0-0---5-7---2--------|
 E|-----|---------------|-----|--------------------5---0--------| 

  corrections or comment`s welcomed timothyleekilpatick@yahoo.com                                
  
  "God bless you all, I love you all goodnite " Ozzy Osbourne






Comments