Walsh Joe - Funk Chords & Tabs

 

Funk Chords & Tabs

Walsh Joe Chords & Tabs

Version: 1 Type: Tab 2 ratings
1 star 2 stars 3 stars 4 stars 5 stars
comments

Funk Tab

   
Funk 49
Joe Walsh

Intro		  *
|----------------------------------------------|
|-----8----------------------------------------|
|-7b-----7b--5----(b)7r-7r-7r-7r--7p5p0--------|
|----------------------------------------7p5p0-|
|----------------------------------------------|
|----------------------------------------------|

for the * part you start with the 3rd string in the 7th
fret already bent (big bend) then you pick the string
and slowly release the bend.  The bend should be done 
when you hit the 4th note.(Listen to song for more help)
[ Tab from: http://www.guitartabs.cc/tabs/w/walsh_joe/funk_tab.html ]
|------------------------------|
|-5h6---7--5h6---7h8-7--7--5h6-|
|-5h6---7--5h6---7---7--7--5h6-|
|-5h6---7--56h---7h9-7--7--5h6-|
|------------------------------|
|------------------------------|

Part A                     Part B                      Part C
|--------------------|----|-----------------------|---|-----|
|--------------------|----|-----------------------|---|---8-|
|--------------------|----|-----------------------|---|---7-|
|-7--5---------------|--7-|--9--7-----------------|-9-|---6-|
|-------7--5---------|--7-|--------9--7-----------|-9-|---7-|
|-------------8--3--5|--5-|--------------10--5--7-|-7-|-----|
                      Part 1A                      Part 1B
Part A
Part 1A
Part A
Part A
Part 1A
Part A
Part A
Part 1A
Part B
Part 1B
Part B
Part B
Part 1B
Part B
Part B
Part 1B
Part C
Comments