Wallflowers - Letters From The Wasteland Chords & Tabs

 

Letters From The Wasteland Chords & Tabs

Wallflowers Chords & Tabs

Version: 1 Type: Tab 1 rating
1 star 2 stars 3 stars 4 stars 5 stars
comments

Letters From The Wasteland Tab

"Letters from the Wasteland" -- The Wallflowers
Tabbed by Kyle Holcombe

Standard Tuning

Intro

Guitar 1:
|--------------------|
|--------------------|
|--4~--7-9-11-7-4----|
|--4~--x-x--x-x-x-2--|
|--2~--5-7--9-5-2-0--|
|--------------------|

Guitar 2:
|------|
|------|
|--4~--|
|--4~--|
|--2~--|
|------|

==================================================================================
Verse

Guitar 1:
        Fill          "But I wake up quick..."           "..fields of.."
|------|-------------|----------------------------------|---------|
|------|-------------|----3---5---6-7----3---6---5-3\0--|---------|
|--4~--|-------------|--4---4---4------4---4---4--------|--4-2----|
|--4~--|--2h4-2h4----|----------------------------------|------4--|
|--2~--|----------2--|----------------------------------|---------|
|------|-------------|----------------------------------|---------|

Guitar 2:
        "But I wake up quick..."
|------|---------------|
|------|----------12\--|
|--4~--|----------11\--|
|--4~--|--9-x-9-9--9\--|
|--2~--|--9-x-9-9------|
|------|--7-x-7-7------|

==================================================================================
Pre-Chorus

Guitar 1:
|-----------|----------------------------------|----0---------------------|
|-----------|----------------------------------|------0-------------------|
|--7-7-6----|------4------2---------------7----|---------------9----------|
|--7-7-6-7--|----4------2---2------5----7---7--|--------9^(10)~~~(10)r----|
|--5-5-4-7--|--2------0----------5----5--------|-----------------------7--|
|--------5--|------------------3---------------|--0-----------------------|
pm.........

Guitar 2:
|-----------|--------------|----0-------|
|-----------|--------------|------0-----|
|--7-7-6----|--4--2-----7--|------------|
|--7-7-6-7--|--4--2--5--7--|--2------4--|
|--5-5-4-7--|--2--0--5--5--|--2------4--|
|--------5--|--------3-----|--0------2--|
pm.........

==================================================================================
Chorus
[ Tab from: http://www.guitartabs.cc/tabs/w/wallflowers/letters_from_the_wasteland_tab.html ]
Guitar 1:
Improvise over these chords
|-----------|-----------|
|-----------|-----------|
|--7--------|-----------|
|--7--4--5--|--2--4--7--|
|--5--4--5--|--2--4--7--|
|-----2--3--|--0--2--5--|

Guitar 2:
|-----------|-----------|
|-----------|-----------|
|--7--------|-----------|
|--7--4--5--|--2--4--7--|
|--5--4--5--|--2--4--7--|
|-----2--3--|--0--2--5--|

==================================================================================
Bridge

"Another bad idea gets through..."

Guitar 1:
|----------------------------------------------------------------------------|
|--8-8--7-7------------------------------------------------------------------|
|--7-7--6-6--9-9--7-7----------------7-7\------------------------------------|
|--5-5--4-4--x-x--x-x--5-5--4-4--2~--7-7\----0-2-3-2-0--------0-2-3-2-0------|
|------------7-7--5-5--5-5--4-4--2~--5-5\--2-----------2-0--2-----------2-0--|
|----------------------3-3--2-2--0~------------------------------------------|

Guitar 2:
|--------------------------------------------------|
|--------------------------------------------------|
|------------------------------------xx-4~--xx-4~--|
|--5-5--4-4--2-2--7-7--5-5--4-4--2~--xx-4~--xx-4~--|
|--5-5--4-4--2-2--5-5--5-5--4-4--2~--xx-2~--xx-2~--|
|--3-3--2-2--0-0--5-5--3-3--2-2--0~----------------|

==================================================================================
After Bridge

"And in this smoke-filled waiting room..."

Guitar 1:
|--------------|--------|
|-----------3--|--------|
|--4--2--0--2--|--------|
|--4--2--0--0--|--2--4--|
|--2--0--2-----|--2--4--|
|--------3-----|--0--2--|

Guitar 2:
|----------|--------|
|------3~--|--------|
|--4~--2~--|--------|
|--4~--0~--|--2--4--|
|--2~------|--2--4--|
|----------|--0--2--|

==================================================================================
I didn't post every little bit and piece, no...but that's because
they improvise a lot, if you've ever seen 'em live.  If you haven't
seen 'em live...then just take my word for it.  =P  In any case, I've
tabbed out the basic ideas and riffs and chords and a few fills and
such, so you should be set fairly well.  Any questions or comments or
death threats can be sent to kyle_gumby@hotmail.com  Have a nice day.
Comments